Skid Row

home > Skid Row

Sweet Little Sister Tab

Skid Row

Difficulty: AdvancedAdvanced

by %2A%2ADersso+Skid%2A%2A

tuner correct add songbook print version text version save to e-mail
chordsukulelecavacokeyboardtabbassdrumsharmonicsflute Guitar Pro
chords

Sweet Little Sister

	  Intro 
 
--------------------------------------------------------- 
--------------5/7---------------------------------------- 
--4/6~-------------9---9--9--9--7*-9--9--6--------------- 
--2/4~w/bar--------9---7--7--7-----6--7--4--------------- 
--------------------------------------------------------- 
---------------------------------------------------------  
 
Verse 2x 
 
--------------------------------------------------------- 
--------------------------------------------------------- 
--------------------------------------------------------- 
----------2--2--------------2--------------4------------- 
----------0--0---4----------0--------------2------------- 
-0--2--0---------2---------------------------------------  
 
 
--------------------------------------------------------- 
--------------------------------------------------------- 
--------------------------------------------------------- 
---------------------------2--2-------------------------- 
-----4--4--4--4------------0--0--4----------------------- 
--0--2--2--2--2---0--2--0--------2-----------------------  
 
 
Ending 2nd time for verse 
 
--------------------------------------------------------- 
--------------------------------------------------------- 
--------------------------------------------------------- 
--------------------------2--2-------------------------2-2 
-----4--4--4--4-----------0--0-----4--4--4--4----------0-0 
--0--2--2--2--2--0--2--0--------0--2--2--2--2--0--2--0---  
 
 
Bridge 
 
--------------------------------------------------------- 
--------------------------------------------------------- 
--------------------------------------------------------- 
--4------2------4-------------6--6--6--6--7-------------- 
--2------0------2-------------4--4--4--4--5-------------- 
---------------------------------------------------------  
 
Chorus 2x 
 
--------------------------------------------------------- 
--------------------------------------------------------- 
--------------------------------------------------------- 
-----------------4--------------2------------------------ 
--4--2--4---2----2-----4--2--4--0---2-------------------- 
--2--0--2---0----------2--0--2------0--------------------  
 
Intro 1x 
Verse  
Bridge 
Chorus 
 
Lead 
 
--------14----------14----------14----------14---14------ 
-----14----------14----------14----------14------14--17~* 
16bf--------16bf--------16bf--------16bf----------------- 
--------------------------------------------------------- 
--------------------------------------------------------- 
---------------------------------------------------------  
 
 
--------------------------------------------------------- 
-------------------------/7--7-7-7---/19----------------- 
-------------------------/6--6-6-6---/18----------------- 
--------------------------------------------11~---------- 
--12--9---------7h9-7~----------------------------------- 
---------12--9-------------------------------------------  
 
Just fly through a Bm scale for the end but end on 
 
--------------------------------------------------------- 
--------------------------------------------------------- 
--11----------------------------------------------------- 
--------------------------------------------------------- 
--------------------------------------------------------- 
---------------------------------------------------------  
 
Bridge 
Chorus 
 
End 
4x========================== 
--------------------------------------------------------- 
--------------------------------------------------------- 
--------------------------------------------------------- 
------------------------2-2------------------------------ 
---4--4--4--4-----------0-0------------------------------ 
-0-2--2--2--2--0--2--0-----------------------------------  
 
 

	  

there isn't a video lesson for this song

request
Full key step upFull key step up
Half key step upHalf key step up
Half key step downHalf key step down
Full key step downFull key step down
Search Paypal
auto scroll beats size up size down change color hide chords drawings
tab show chords e-chords YouTube Clip e-chords hide all tabs e-chords go to top tab