Skegss

Sunshine Flower

Skegss

tabs

by  ADALGOMES

save to print version add songbook text version e-mail correct tuner
chordsukulelecavacokeyboardtabbassdrumsharmonicaflute Guitar Pro
close

there isn't a video lesson for this song

chords

Sunshine Flower

	  		
Intro 

    A     D    G    D    A      A     D     D      A    D    G    G    E 
e|--------2----3----2-----------------2-----2-----------2----3----3-------------| 
B|--2-----3----3----3----2------2-----3-----3------2----3----3----3-------------| 
G|--2-----2----0----2----2------2-----2-----2------2----2----0----0----1--------| 
D|--2----------0---------2------2------------------2---------0----0----2--------| 
A|-------------2---------------------------------------------2----2----2--------| 
E|-------------3---------------------------------------------3----3-------------| 

    D  D  D  D  D  D  A  A  A  A  A  A  E  E  E  E  E  E  E  E  E  E  E  E 

e|--2--2--2--2--2--2--------------------------------------12-12-12-12-12-12--| 
B|--3--3--3--3--3--3--2--2--2--2--2--2--------------------12-12-12-12-12-12--| 
G|--2--2--2--2--2--2--2--2--2--2--2--2--1--1--1--1--1--1--13-13-13-13-13-13--| 
D|--------------------2--2--2--2--2--2--2--2--2--2--2--2--14-14-14-14-14-14--| 
A|--------------------------------------2--2--2--2--2--2--14-14-14-14-14-14--| 
E|--------------------------------------------------------12-12-12-12-12-12--| 

e|--2--2--2--2--2--2---------------------------------------------------------| 
B|--3--3--3--3--3--3--2--2--2--2--2--2---------------------------------------| 
G|--2--2--2--2--2--2--2--2--2--2--2--2-1--1--1--1--1--1X1------------------| 
D|--------------------2--2--2--2--2--2-2--2--2--2--2--2--------------------| 
A|-------------------------------------2--2--2--2--2--2--------------------| 
E|---------------------------------------------------------------------------| 


verse 1X4 

D  D  D  D  D  D  A  A  A  A  A  A  E  E  E  E  E  E  E  E  E  E  E  E 

e|--2--2--2--2--2--2--------------------------------------12-12-12-12-12-12--| 
B|--3--3--3--3--3--3--2--2--2--2--2--2--------------------12-12-12-12-12-12--| 
G|--2--2--2--2--2--2--2--2--2--2--2--2--1--1--1--1--1--1--13-13-13-13-13-13--| 
D|--------------------2--2--2--2--2--2--2--2--2--2--2--2--14-14-14-14-14-14--| 
A|--------------------------------------2--2--2--2--2--2--14-14-14-14-14-14--| 
E|--------------------------------------------------------12-12-12-12-12-12--| 

e|--2--2--2--2--2--2---------------------------------------------------------| 
B|--3--3--3--3--3--3--2--2--2--2--2--2---------------------------------------| 
G|--2--2--2--2--2--2--2--2--2--2--2--2-1--1--1--1--1--1X1------------------| 
D|--------------------2--2--2--2--2--2-2--2--2--2--2--2--------------------| 
A|-------------------------------------2--2--2--2--2--2--------------------| 
E|---------------------------------------------------------------------------|  


Chorus X2 

e|--------------------------------------12-12-12-12-12-12-12-12-12-12-12-12--| 
B|--2--2--2--2--2--2--2--2--2--2--2--2--12-12-12-12-12-12-12-12-12-12-12-12--| 
G|--2--2--2--2--2--2--2--2--2--2--2--2--13-13-13-13-13-13-13-13-13-13-13-13--| 
D|--2--2--2--2--2--2--2--2--2--2--2--2--14-14-14-14-14-14-14-14-14-14-14-14--| 
A|--------------------------------------14-14-14-14-14-14-14-14-14-14-14-14--| 
E|--------------------------------------12-12-12-12-12-12-12-12-12-12-12-12--| 

Bridge 

D  D  D  D  D  D  A  A  A  A  A  A  E  E  E  E  E  E  E  E  E  E  E  E 

e|--2--2--2--2--2--2--------------------------------------12-12-12-12-12-12--| 
B|--3--3--3--3--3--3--2--2--2--2--2--2--------------------12-12-12-12-12-12--| 
G|--2--2--2--2--2--2--2--2--2--2--2--2--1--1--1--1--1--1--13-13-13-13-13-13--| 
D|--------------------2--2--2--2--2--2--2--2--2--2--2--2--14-14-14-14-14-14--| 
A|--------------------------------------2--2--2--2--2--2--14-14-14-14-14-14--| 
E|--------------------------------------------------------12-12-12-12-12-12--| 

e|--2--2--2--2--2--2---------------------------------------------------------| 
B|--3--3--3--3--3--3--2--2--2--2--2--2---------------------------------------| 
G|--2--2--2--2--2--2--2--2--2--2--2--2-1--1--1--1--1--1X1------------------| 
D|--------------------2--2--2--2--2--2-2--2--2--2--2--2--------------------| 
A|-------------------------------------2--2--2--2--2--2--------------------| 
E|---------------------------------------------------------------------------| 

verse 2X2 

D  D  D  D  D  D  A  A  A  A  A  A  E  E  E  E  E  E  E  E  E  E  E  E 

e|--2--2--2--2--2--2--------------------------------------12-12-12-12-12-12--| 
B|--3--3--3--3--3--3--2--2--2--2--2--2--------------------12-12-12-12-12-12--| 
G|--2--2--2--2--2--2--2--2--2--2--2--2--1--1--1--1--1--1--13-13-13-13-13-13--| 
D|--------------------2--2--2--2--2--2--2--2--2--2--2--2--14-14-14-14-14-14--| 
A|--------------------------------------2--2--2--2--2--2--14-14-14-14-14-14--| 
E|--------------------------------------------------------12-12-12-12-12-12--| 

e|--2--2--2--2--2--2---------------------------------------------------------| 
B|--3--3--3--3--3--3--2--2--2--2--2--2---------------------------------------| 
G|--2--2--2--2--2--2--2--2--2--2--2--2-1--1--1--1--1--1X1------------------| 
D|--------------------2--2--2--2--2--2-2--2--2--2--2--2--------------------| 
A|-------------------------------------2--2--2--2--2--2--------------------| 
E|---------------------------------------------------------------------------|  

Chorus X2 

e|--------------------------------------12-12-12-12-12-12-12-12-12-12-12-12--| 
B|--2--2--2--2--2--2--2--2--2--2--2--2--12-12-12-12-12-12-12-12-12-12-12-12--| 
G|--2--2--2--2--2--2--2--2--2--2--2--2--13-13-13-13-13-13-13-13-13-13-13-13--| 
D|--2--2--2--2--2--2--2--2--2--2--2--2--14-14-14-14-14-14-14-14-14-14-14-14--| 
A|--------------------------------------14-14-14-14-14-14-14-14-14-14-14-14--| 
E|--------------------------------------12-12-12-12-12-12-12-12-12-12-12-12--| 


Outro 

D  D  D  D  D  D  A  A  A  A  A  A  E  E  E  E  E  E  E  E  E  E  E  E 

e|--2--2--2--2--2--2--------------------------------------12-12-12-12-12-12--| 
B|--3--3--3--3--3--3--2--2--2--2--2--2--------------------12-12-12-12-12-12--| 
G|--2--2--2--2--2--2--2--2--2--2--2--2--1--1--1--1--1--1--13-13-13-13-13-13--| 
D|--------------------2--2--2--2--2--2--2--2--2--2--2--2--14-14-14-14-14-14--| 
A|--------------------------------------2--2--2--2--2--2--14-14-14-14-14-14--| 
E|--------------------------------------------------------12-12-12-12-12-12--| 

e|--2--2--2--2--2--2---------------------------------------------------------| 
B|--3--3--3--3--3--3--2--2--2--2--2--2---------------------------------------| 
G|--2--2--2--2--2--2--2--2--2--2--2--2-1--1--1--1--1--1X1------------------| 
D|--------------------2--2--2--2--2--2-2--2--2--2--2--2--------------------| 
A|-------------------------------------2--2--2--2--2--2--------------------| 
E|---------------------------------------------------------------------------| 

                                                  
e|--2------------------------------------------------------------------------| 
B|--3-----------------2------------------------------------------------------| 
G|--2-----------------2------------------1-----------------------------------| 
D|--------------------2------------------2-----------------------------------| 
A|---------------------------------------2-----------------------------------| 
E|---------------------------------------------------------------------------| 
		  

Full key step upFull key step up
Half key step upHalf key step up
Half key step downHalf key step down
Full key step downFull key step down
auto scroll beats size up size down change color hide chords drawings
tab show chords e-chords YouTube Clip e-chords hide all tabs e-chords go to top tab

share