Skating Polly

Camelot

Skating Polly

tabs

by  RENEJUNIOR

save to print version add songbook text version e-mail correct tuner
chordsukulelecavacokeyboardtabbassdrumsharmonicaflute Guitar Pro
close

there isn't a video lesson for this song

chords

Camelot

	  		Intro 

e|-------------|-------------|-------------|-------------| 
B|-------------|-------------|-------------|-------------| 
G|-------------|-------------|-------------|-------------| 
D|--5-5-x-x-x--|--5-5-x-x-x--|--5-5-x-x-x--|--6-6-x-x-x--| (x4) 
A|--5-5-x-x-x--|--5-5-x-x-x--|--5-5-x-x-x--|--6-6-x-x-x--| 
E|--3-3-x-x-x--|--3-3-x-x-x--|--3-3-x-x-x--|--4-4-x-x-x--| 


verse 1 

e|---------------------|--------------------| 
B|---------------------|--------------------| 
G|---------------------|---------------3p0--| 
D|---------------------|--------------------| 
A|--------1-------3p0--|--------1-----------| 
E|--3-3------3-3-------|--3-3------3-3------| 

e|---------------------|--------------------|---------------------------| 
B|---------------------|--------------------|---------------------------| 
G|---------------------|--------------------|-------------------2-3--0--| 
D|---------------------|--------------------|-----------------3------0--| 
A|--------1-------3p0--|--------1-----------|--------1------------------| 
E|--3-3------3-3-------|--3-3------3-3------|--3-3------3-3-------------| 


verse 2 

e|-------------|-------------|-------------|-------------| 
B|-------------|-------------|-------------|-------------| 
G|-------------|-------------|-------------|-------------| 
D|--5-5-x-x-x--|--5-5-x-x-x--|--5-5-x-x-x--|--6-6-x-x-x--| (x4) 
A|--5-5-x-x-x--|--5-5-x-x-x--|--5-5-x-x-x--|--6-6-x-x-x--| 
E|--3-3-x-x-x--|--3-3-x-x-x--|--3-3-x-x-x--|--4-4-x-x-x--| 


Bridge 1 

e|-----------------------|-----------------------| 
B|-----------------------|-----------------------| 
G|-----------------------|-----------------------| 
D|--5-x-x-x-5-x-x-6-6-6--|--5-x-x-x-5-x-x-8-8-8--| 
A|--5-x-x-x-5-x-x-6-6-6--|--5-x-x-x-5-x-x-8-8-8--| 
E|--3-x-x-x-3-x-x-4-4-4--|--3-x-x-x-3-x-x-6-6-6--| 

e|-----------------------|-------------------| 
B|-----------------------|-------------------| 
G|-----------------------|-------------------| 
D|--5-x-x-x-5-x-x-6-6-6--|--5-x-x-8-x-x-6-5--| 
A|--5-x-x-x-5-x-x-6-6-6--|--5-x-x-8-x-x-6-5--| 
E|--3-x-x-x-3-x-x-4-4-4--|--3-x-x-6-x-x-4-3--| 

e|-------------------------------|-------------------------------| 
B|-------------------------------|-------------------------------| 
G|-------------------------------|-------------------------------| 
D|-------------------------------|-------------------------------| 
A|-----1---------3--------1------|-----1---------3--------1------| 
E|-3-3----3--2-2----2-3-3---3-2--|-3-3----3--2-2----2-3-3---2-3--| 


verse 3 

e|---------------------|--------------------|------------------------| 
B|---------------------|--------------------|------------------------| 
G|---------------------|--------------------|-------------------2-3--| 
D|---------------------|--------------------|-----------------3------| 
A|--------1-------3p0--|--------1-----------|--------1---------------| 
E|--3-3------3-3-------|--3-3------3-3------|--3-3------3-3----------| 

e|---------------------|--------------------|------------------------|-----------------------------| 
B|----------------3----|--------------------|------------------------|-----------------------------| 
G|----------------3----|--------------------|-------------------2-3--|-------------------2-3-------| 
D|----------------3----|--------------------|-----------------3------|-----------------3-----------| 
A|--------1------------|--------1------3p0--|--------1---------------|--------1--------------------| 
E|--3-3------3-3-------|--3-3------3-3------|--3-3------3-3----------|--3-3------3-3----------3-3--| 


Chorus 1 

e|-------------|-------------|-------------|-------------| 
B|-------------|-------------|-------------|-------------| 
G|-------------|-------------|-------------|-------------| 
D|--5-5-x-x-x--|--5-5-x-x-x--|--5-5-x-x-x--|--6-6-x-x-x--| (x4) 
A|--5-5-x-x-x--|--5-5-x-x-x--|--5-5-x-x-x--|--6-6-x-x-x--| 
E|--3-3-x-x-x--|--3-3-x-x-x--|--3-3-x-x-x--|--4-4-x-x-x--| 


Bridge 2 

e|-----------------------|-----------------------| 
B|-----------------------|-----------------------| 
G|-----------------------|-----------------------| 
D|--5-x-x-x-5-x-x-6-6-6--|--5-x-x-x-5-x-x-8-8-8--| 
A|--5-x-x-x-5-x-x-6-6-6--|--5-x-x-x-5-x-x-8-8-8--| 
E|--3-x-x-x-3-x-x-4-4-4--|--3-x-x-x-3-x-x-6-6-6--| 
                                                    (x2)   
e|-----------------------|-------------------| 
B|-----------------------|-------------------| 
G|-----------------------|-------------------| 
D|--5-x-x-x-5-x-x-6-6-6--|--5-x-x-8-x-x-6-5--| 
A|--5-x-x-x-5-x-x-6-6-6--|--5-x-x-8-x-x-6-5--| 
E|--3-x-x-x-3-x-x-4-4-4--|--3-x-x-6-x-x-4-3--| 

e|-------------------------------|---------------------------------------| 
B|-------------------------------|---------------------------------------| 
G|-------------------------------|----------------------------------1-0--| 
D|-------------------------------|------------------------------1-3------| 
A|-----1---------3--------1------|-----1---------3--------1---3----------| 
E|-3-3----3--2-2----2-3-3---3-2--|-3-3----3--2-2----2-3-3----------------| 

e|---------------| 
B|------------0--| 
G|--3b---2b---0--| 
D|--3b---2b---0--| 
A|---------------| 
E|---------------| 


verse 4 

e|-------------|-------------------|-----------------| 
B|-------------|-------------------|-----------------| 
G|-------------|-------------------|-----------------| 
D|--/10-10-10--|--5-5-5-5-5-5-5-5--|--5-5-5-5-5-5-5--| (x7) 
A|--/10-10-10--|--5-5-5-5-5-5-5-5--|--5-5-5-5-5-5-5--| 
E|--/-8--8--8--|--3-3-3-3-3-3-3-3--|--3-3-3-3-3-3-3--| 

e|---------------------------|------------------| 
B|---------------------------|------------------| 
G|---------------------------|------------------| 
D|--12-12-12-12-12-12-12-12--|--12-12-12-12-12--| 
A|--12-12-12-12-12-12-12-12--|--12-12-12-12-12--| 
E|--10-10-10-10-10-10-10-10--|--10-10-10-10-10--| 


Outro 

e|-------------|-------------|-------------|-------------| 
B|-------------|-------------|-------------|-------------| 
G|-------------|-------------|-------------|-------------| 
D|--5-5-x-x-x--|--5-5-x-x-x--|--5-5-x-x-x--|--6-6-x-x-x--| (x6) 
A|--5-5-x-x-x--|--5-5-x-x-x--|--5-5-x-x-x--|--6-6-x-x-x--| 
E|--3-3-x-x-x--|--3-3-x-x-x--|--3-3-x-x-x--|--4-4-x-x-x--| 

e|-------| 
B|-------| 
G|-------| 
D|--5-5--| 
A|--5-5--| 
E|--3-3--| 




************************************ 

| x   Dead note 
| p   Pull-off 

************************************ 
		  

See also:

tabs Ira! - Poço de Sensibilidade (Solo - Acustico Mtv) tabs Deep Purple - Smoke On The Water tabs Deep Purple - Smoke on the water (intro) tabs Ira! - Eu Quero Sempre Mais (Com Pitty, intro) tabs Deep Purple - Smoke on the Water (ver. 2) tabs Deep Purple - Knocking At Your Back Door
e-chords

Other versions:

tabs Skating Polly - Camelot
auto scroll beats size up size down change color hide chords drawings
tab show chords e-chords YouTube Clip e-chords hide all tabs e-chords go to top tab

share