Simple Plan

Welcome to my Life

Simple Plan

tabs Expert expert

save to print version add songbook text version e-mail correct tuner
chordsukulelecavacokeyboardtabbassdrumsharmonicaflute Guitar Pro
close

there isn't a video lesson for this song

chords

Welcome to my Life

	  		 
e|--------------------------------------------------------| 
B|--------------------------------------------------------| 
G|-6--6--6-6----------------------------------------------| 
D|-6--6--6-6---6--6--6-6---8--8--8-8---4--4--4-4----------| 
A|-4--4--4-4---6--6--6-6---8--8--8-8---4--4--4-4----------| 
E|-------------4--4--4-4---6--6--6-6---2--2--2-2----------| 
 
Pre-refrão 
e|--------------------------------------------------| 
B|--------------------------------------------------| 
G|--------------------------------------------------| 
D|-8-----6------4--------6~-------------------------| 
A|-8-x8--6--x8--4--x8--s-6~-------------------------| 
E|-6-----4------2--------4~-------------------------| 
 
refrão  
e|--------------------------------------------------| 
B|--------------------------------------------------| 
G|---6--------------6xxx---------6------------------|X2 
D|-6-6--8xxx--4xxx--6xxx-6xxx--6-6------------------| 
A|-6-4--8xxx--4xxx--4xxx-6xxx--6-4------------------| 
E|-4----6xxx--2xxx-------4xxx--4--------------------| 
 
) 
e|---------------------------------------------------| 
B|---------------------------------------------------| 
G|-------------6666----------------------------------| 
D|-8888--4444--6666--6666---------44444444---6~------| 
A|-8888--4444--4444--6666---------44444444-s-6~------| 
E|-6666--2222--------4444---------22222222---4~------| 
 
refrão  
 
e|--9999-8888-9999-11-11-11-11-x3--99999999-s-11~-------| 
B|------------------------------------------------------| 
G|------------------------------------------------------| 
D|------------------------------------------------------| 
A|------------------------------------------------------| 
E|------------------------------------------------------| 
 
 
e|----------------------------------------------------------------------| 
B|----------------------------------------------------------------------| 
G|--6-6-6-6-------------------------------------------------------------| 
D|--6-6-6-6-------------------------------------------------------------| 
A|--4-4-4-4-------------------------------------------------------------| 
E|----------------------------------------------------------------------| 
 
 
e|--9---8------------------9-----------------------------------| 
B|--------8---x2-----8h9p8-------------------------------------| 
G|-------------------------------------------------------------| 
D|-------------------------------------------------------------| 
A|-------------------------------------------------------------| 
E|-------------------------------------------------------------| 
 
 
 
 
e|-----------------------------------------------------------------| 
B|-----------------------------------------------------------------| 
G|---------------6----------------6---------------6666-------------| 
D|-44xx--44xx--6-6--88xx--88xx--6-6--44xx-44xx--6-6666-6666--------| 
A|-44xx--44xx--6-4--88xx--88xx--6-4--44xx-44xx--6-4444-6666--------| 
E|-22xx--22xx--4----66xx--66xx--4----22xx-22xx--4------4444--------| 
 
 
e|--------------------------------------------------| 
B|--------------------------------------------------| 
G|---------6----------6-----------------------------| 
D|-44xx--6-6--88xx--6-6---66666666---4~-------------| 
A|-44xx--6-4--88xx--6-4---66666666-s-4~-------------| 
E|-22xx--4----66xx--4-----44444444---2~-------------| 
 
 
e|-------------------------------------------------------------| 
B|-------------------------------------------------------------| 
G|---------6~--------------------------------------------------| 
D|--8~--4~-6~-6~-----------------------------------------------| 
A|--6~--4~-4~-6~--x2-------------------------------------------| 
E|--6~--2~----4~-----------------------------------------------| 
 
 
e|------------------------------------------------------------------------| 
B|------------------------------------------------------------------------| 
G|------6~----------------------------------------------------------------| 
D|------6~----------------------------------------------------------------| 
A|------4~----------------------------------------------------------------| 
E|------------------------------------------------------------------------| 
 
     letra 
Verso1: 
Do you ever feel like breaking down 
Do you ever feel out of place 
Like somehow you just don't belong 
And no one understands you 
Do you ever wanna run away 
Do you lock yourself in your room 
With the radio on turned up so loud 
But no one hears you screaming 
 
Pre-refrão: 
No you don't know what it's like 
When nothing feels alright 
You don't know what it's like to be like me... 
 
refrão: 
To be hurt 
To be lost 
To be left out in the dark 
To be kicked when your down 
And feel like you've been pushed around 
To be on the edge of breaking down 
And no one's there to save you 
No you don't know what it's like 
...Welcome to My Life 
 
Verso2: 
Do you wanna be somebody else 
Are you sick of feeling so left out 
Are you desperate you find something more 
Before your life is over 
Are you stuck inside a world you hate 
Are you sick of everyone around 
With they're big fake smiles and stupid lies 
While deep inside your bleeding 
 
Pre-refrão 
 
refrão 
 
 
No one ever lied strait to your face 
And no one ever stabbed you in the back 
You might think I'm happy but I'm not gonna be okay 
Everybody always gave you what you wanted 
You never had to work it was always there 
You don't know what it's like...what it's like 
 
refrão x2 
 
Welcome to My Life....Welcome to My Life 
 
 
_______________________________________________________ 
Contribuição: **Filipe**([email protected]) 

		  

auto scroll beats size up size down change color hide chords drawings
tab show chords e-chords YouTube Clip e-chords hide all tabs e-chords go to top tab

share