Siege

Life Of Hate

Siege

tabs

by  HEBEALMEIDA

save to print version add songbook text version e-mail correct tuner
chordsukulelecavacokeyboardtabbassdrumsharmonicaflute Guitar Pro
close

there isn't a video lesson for this song

chords

Life Of Hate

	  		



Tuning E A D G B E 

Intro: 
|L 
|-----------------------------------------------| 
|-------2----------2----------2-----------------| 
|-------2----------2----------2----4p2-4p2-4bh--| 
|-4---4-2----4---4-2----4---4-2-----------------| 
|-2-1-2------2-1-2------2-1-2-------------------| 
|-----------------------------------------------| 
|   .          .          . 
|R 
|-----------------------------------------------| 
|------------------2----------2-----------------| 
|------------------2----------2----4p2-4p2-4bh--| 
|------------4---4-2----4---4-2-----------------| 
|------------2-1-2------2-1-2-------------------| 
|-----------------------------------------------| 
               .          . 

Riff A x2 
|---------------------------------| 
|---------------------------------| 
|-alternate picking---------------| 
|---------------------------------| 
|-5-5-8-8-7-7-8-8-5-5-8-8-7-7-8-8-| 
|-3-3-6-6-5-5-6-6-3-3-6-6-5-5-6-6-| 

Riff B x1 
|-------------------------| 
|-------------------------| 
|-------------------------| 
|---------6-6-5-5---------| 
|-5-5-5-5-4-4-3-3-5-5-5---| 
|-3-3-3-3---------3-3-3---| 

Riff A x2 
Riff B x1 
Riff A x1 

Break 

Riff A x1 
Riff B x1 
Riff A x1 
hide this tabHide
tab
End x1 |-------------------------| |-------------------------| |-------------------------| |-------------------------| |-5-5-8-8-7-7-8-8-5--5--5-| |-3-3-6-6-5-5-6-6-3--3--3-|
tab

auto scroll beats size up size down change color hide chords drawings
tab show chords e-chords YouTube Clip e-chords hide all tabs e-chords go to top tab

share