Sidewalk Slam

Forever Yours

Sidewalk Slam

tabs nolevel nolevel

by  ROBEPOIEL

save to print version add songbook text version e-mail correct tuner
chordsukulelecavacokeyboardtabbassdrumsharmonicaflute Guitar Pro
close

there isn't a video lesson for this song

chords

Forever Yours

	  		

Intro:D5 E5 B5 A5 
      A5 E5 B5 

Verso: 
E|------------------------------------------------------| 
B|------------------------------------------------------| 
G|------------------------------------------------------| 
D|7-7-7-7-7-7--9-9-9-9-9-9------------------------------| 
A|5-5-5-5-5-5--7-7-7-7-7-7--9-9-9-9-9-9-9--7-7-7-7-7-7--| 
E|--------------------------7-7-7-7-7-7-7--5-5-5-5-5-5--| 

Solo Junto Com a Base Do Verso 
E|------------------------------------------------------| 
B|-10-10----10-10----10-10----13-12---------------------| 
G|9--9--9--9--9--9--9--9--9--9--------------------------| 
D|------------------------------------------------------| 
A|------------------------------------------------------| 
E|------------------------------------------------------| 

Depois Do Verso 
E|------------------------------------------------------| 
B|------------------------------------------------------| 
G|7--7-7-7---7-7-7-----7-7-7-----7-7-7----7-7-7---------| 
D|------------------------------------------------------| 
A|5--5-5-5---5-5-5-----5-5-5-----5-5-5----5-5-5---------| 
E|------------------------------------------------------| 


E|----------------------------------------------------------------------| 
B|----------------------------------------------------------------------| 
G|------------------------------------7--7-7-7--7-7-7--7--7-7-7--7-7-7--| 
D|7--7-7-7--7-7-7---9--9-9-9--9-9-9-------------------------------------| 
A|------------------------------------5--5-5-5--5-5-5--5--5-5-5--5-5-5--| 
E|5--5-5-5--5-5-5---7--7-7-7--6-6-6-------------------------------------| 
		  

Full key step upFull key step up
Half key step upHalf key step up
Half key step downHalf key step down
Full key step downFull key step down
hide glossary

See also:

tabs Doa - Sexyest Girl tabs Deep Purple - Smoke on the water (intro) tabs Deep Purple - Highway Star tabs Albert Hammond Jr - Holiday tabs Deep Purple - Deep Purple - Smoke On The Water tabs Deep Purple - Ted The Mechanic
e-chords

Other versions:

tabs Side Walk Slam - Forever Yours tabs Sidewalk Slam - Forever Yours
auto scroll beats size up size down change color hide chords drawings
tab show chords e-chords YouTube Clip e-chords hide all tabs e-chords go to top tab

share with facebook