Shoes And Socks Off

Heres My Head On A Plate

Shoes And Socks Off

tabs

by  TERCMORAES

save to print version add songbook text version e-mail correct tuner
chordsukulelecavacokeyboardtabbassdrumsharmonicaflute Guitar Pro
close

there isn't a video lesson for this song

chords

Heres My Head On A Plate

	  		

INTRO AND verse 1: 
Played twice alone and then twice with the words. 
         
D#|----------------------|--------x----------x-----|-------x----------x-----| 
A#|----------------------|--------x----------x-----|-------x----------x-----| 
F#|----------------------|---6----x-----6----x-----|--6----x-----6----x-----| 
C#|----------------------|---x----x-----x----x-----|--x----x-----x----x-----| 
G#|----------------------|---8----x-----8----x-----|--8----x-----8----x-----| 
D#|-------------------6--|--------x--6-------x--6--|-------x--6-------x--9--| 


       
D#|--------x-----------x-----|--------x-----------x-----|-------x----------x-----| 
A#|--------x-----------x-----|--------x-----------x-----|-------x----------x-----| 
F#|--11----x-----11----x-----|--11----x------9----x-----|--4----x-----4----x-----| 
C#|---x----x------x----x-----|---x----x------x----x-----|--x----x-----x----x-----| 
G#|--11----x-----11----x-----|--11----x-----11----x-----|--6----x-----6----x-----| 
D#|--------x--9--------x--9--|--------x--9--------x--4--|-------x--4-------x--4--| 


     
D#|-------x----------x-----|-------x----------x-----|-------x----------x-----| 
A#|-------x----------x-----|-------x----------x-----|-------x----------x-----| 
F#|--4----x-----4----x-----|--6----x-----6----x-----|--6----x-----6----x-----| 
C#|--x----x-----x----x-----|--x----x-----x----x-----|--x----x-----x----x-----| 
G#|--6----x-----6----x-----|--7----x-----7----x-----|--7----x-----7----x-----| 
D#|-------x--4-------x--0--|-------x--0-------x--0--|-------x--0-------x--7--| 



D#|-------x----------x-----|-------x-------------x-------| 
A#|-------x----------x-----|-------x-------------x-------| 
F#|--8----x-----8----x-----|--8----x-----8-------x-------| 
C#|--x----x-----x----x-----|--x----x-----x-------x-------| 
G#|--9----x-----9----x-----|--9----x-----9-------x-------| 
D#|-------x--7-------x--6--|-------x--6----------x--6----| 


        "Is that the time? Is that the time? 
         Where are you now? To be a fly on the wall. 
         A fly on the wall, squinting at you, 
         picking out the shapes in the dark. 
         Can you believe this? 

         So talk. Just talk. 
         What are you saying? Bigger fish to fry? 
         Bigger fish to fry. I'm breathing embers. 
         I dare you to remember daring 
         to get a little closer." 



The bar just before the Chorus looks like this: 

D#|-------x----------x-----| 
A#|-------x----------x-----| 
F#|--8----x-----8----x-----| 
C#|--x----x-----x----x-----| 
G#|--9----x-----9----x-----| 
D#|-------x--6-------x--4--| 



Chorus 1: 
Played twice, but with different endings. 

D#|-------x----------x-----|-------x----------x-----|-------x----------x-----| 
A#|--7----x-----7----x-----|--7----x-----7----x-----|--5----x-----5----x-----| 
F#|--4----x-----4----x-----|--4----x-----4----x-----|--3----x-----3----x-----| 
C#|--4----x-----4----x-----|--4----x-----4----x-----|--4----x-----4----x-----| 
G#|--6----x-----6----x-----|--6----x-----6----x-----|-------x----------x-----| 
D#|-------x--4-------x--4--|-------x--4-------x--2--|-------x--2-------x--2--| 


                                                                          
D#|-------x----------x-----|-------x----------x-----| 
A#|--5----x-----5----x-----|--4----x-----4----x-----| 
F#|--4----x-----4----x-----|--4----x-----4----x-----| 
C#|--4----x-----4----x-----|--4----x-----4----x-----| 
G#|-------x----------x-----|-------x----------x-----| 
D#|-------x--2-------x--0--|-------x--0-------x--0--| 


First time: 

D#|-------x----------x-----|-------x----------x-----|-------x----------x-----| 
A#|--4----x-----4----x-----|--4----x-----4----x-----|--4----x-----4----x-----| 
F#|--4----x-----4----x-----|--4----x-----4----x-----|--4----x-----4----x-----| 
C#|--4----x-----4----x-----|--4----x-----4----x-----|--4----x-----4----x-----| 
G#|-------x----------x-----|-------x----------x-----|-------x----------x-----| 
D#|-------x--0-------x--0--|-------x--0-------x-0---|-------x--0-------x--4--| 


Second time: 

D#|-------x----------x-----|-------x----------x-----|-------x----------x-----| 
A#|--4----x-----4----x-----|-------x----------x-----|--4----x-----4----x-----| 
F#|--4----x-----4----x-----|--8----x-----8----x-----|--4----x-----4----x-----| 
C#|--4----x-----4----x-----|--x----x-----x----x-----|--4----x-----4----x-----| 
G#|-------x----------x-----|--9----x-----9----x-----|-------x----------x-----| 
D#|-------x--0-------x--7--|-------x--7-------x--6--|-------x--0-------x--4--| 


        "The line goes dead." 



verse 2: 
Go round the usual chords like before, but this time only twice. 

        "Every time, every time 
         I stand down, I catch a bullet in my 
         teeth. Boy, do I feel sheepish. 
         It never was, never will be 
         so I'm keeping it together. 

         Okay, okay, Silly me, 
         Here's my head on a plate, 
         my head on a plate. I get the message, 
         sitting back down with whiplash 
         and crystal in my limbs," 


Chorus 2: 
Same as before, and followed by the main progression for however long you fancy. 

        "and I'm still here." 



Hope this is of any use to you. 
Cheers. 
		  

See also:

tabs Deep Purple - Sail Away tabs Deep Purple - Pictures of Home tabs Deep Purple - Lazy tabs Deep Purple - Highway Star tabs Deep Purple - Deep Purple - Smoke On The Water tabs Deep Purple - Smoke On The Water (Intro + solo 01)
e-chords

Other versions:

tabs Shoes And Socks Off - Heres My Head On A Plate
auto scroll beats size up size down change color hide chords drawings
tab show chords e-chords YouTube Clip e-chords hide all tabs e-chords go to top tab

share