Shingeki No Kyojin

Guren No Yumiya

Shingeki No Kyojin

tabs Beginner beginner

by  LUCICAMARGO

save to print version add songbook text version e-mail correct tuner
chordsukulelecavacokeyboardtabbassdrumsharmonicaflute Guitar Pro
close

there isn't a video lesson for this song

chords

Guren No Yumiya

	  		Intro: 

GUITAR 1: 

 
E|-----|------------| 
B|-----|------------| 
G|--6--|--6------2--| 
D|--6--|--6------2--| 
A|--4--|--4------0--| 
E|-----|------------| 
 

GUITAR 2: 

 
E|---------------------------------------|-------------------------------------------------------| 
B|---------------------------------------|--9--------------------------9-------------------------| 
G|----------9--8----------------9--8-----|-----9--11--8--9------8---------9--11--8--9--8---------| 
D|--11--11--------9--9--11--11--------9--|------------------11-----9----------------------11--9--| 
A|---------------------------------------|-------------------------------------------------------| 
E|---------------------------------------|-------------------------------------------------------| 
 

GUITAR 1: 

 
E|------------| 
B|------------| 
G|--9------5--| 
D|--9------5--| 
A|--7------3--| 
E|------------| 
 

GUITAR 2: 

 
E|--------------------------------------------------------------------| 
B|--12--------------------------------12------------------------------| 
G|------12--14--11--12------11------------12--14--11--12--11----------| 
D|----------------------14------12----------------------------14--12--| 
A|--------------------------------------------------------------------| 
E|--------------------------------------------------------------------| 
 

Verse/Estrofa: 

GUITAR 2: 

 
E|--------------------------------------------------------|--------------------------------------------------------| 
B|--------------------------------------------------------|--------------------------------------------------------| 
G|--8---------------------------8-------------------------|--8---------------------------8-------------------------| 
D|-----9--11--8--9------8----------9--11--8--9--8---------|-----9--11--8--9------8----------9--11--8--9--8---------| 
A|------------------11-----9-----------------------11--9--|------------------11-----9-----------------------11--9--| 
E|--------------------------------------------------------|--------------------------------------------------------| 
 

GUITAR 1: 
  /~~~~~~~~~~~~~~~~~~~~~~~~~~~~~~~~~~~~~~~~REPEAT~x2~~~~/~~~~REPITE~x2~~~~~~~~~~~~~~~~~~~~~~~~~~~~~~~~~~~~~~~~\ 
 
E|-------------------------------------------------------------------------------------------------------------| 
B|-------------------------------------------------------------------------------------------------------------| 
G|-------------------------------------------------------------------------------------------------------------| 
D|--(6)-x--x--x---x--x--x--x---(6)-x--x--x---x--x--x--x---(2)-x--x--x---x--x--x--x---(2)-x--x--x---x--x--x--x--| 
A|--(6)-x--x--x---x--x--x--x---(6)-x--x--x---x--x--x--x---(2)-x--x--x---x--x--x--x---(2)-x--x--x---x--x--x--x--| 
E|--(4)-x--x--x---x--x--x--x---(4)-x--x--x---x--x--x--x---(0)-x--x--x---x--x--x--x---(0)-x--x--x---x--x--x--x--| 
 

GUITAR 2: 

 
E|--------------------------------------------------------|--------------------------------------------------------| 
B|--------------------------------------------------------|--------------------------------------------------------| 
G|--8---------------------------8-------------------------|--8---------------------------8-------------------------| 
D|-----9--11--8--9------8----------9--11--8--9--8---------|-----9--11--8--9------8----------9--11--8--9--8---------| 
A|------------------11-----9-----------------------11--9--|------------------11-----9-----------------------11--9--| 
E|--------------------------------------------------------|--------------------------------------------------------| 
 

 
Pre-Chorus/Pre-Chorus 
 

GUITAR 1: 

 
E|---------------------------|------------------| 
B|---------------------------|------------------| 
G|---------------8--8--8--8--|------------------| 
D|--2--2--2--2---8--8--8--8--|--6---8---9---10--| 
A|--2--2--2--2---6--6--6--6--|--6---8---9---10--| 
E|--0--0--0--0---------------|--4---6---7---8---| 
 

GUITAR 2: 

 
E|-------------------------------------------|-------------------------------------------------| 
B|-------------------------------------------|-------------------------------------------------| 
G|-------------------------------------------|-------------------------------------------------| 
D|------------------8--9--8------------------|-----------------------8-------8--9-------9--10--| 
A|--11--11--11--11-----------11--10--10--10--|------10--11-------11----------------------------| 
E|-------------------------------------------|--11-----------11----------11---------11---------| 
 

GUITAR 1: 

 
E|------------|----------------| 
B|------------|----------------| 
G|--6------4--|--2------9---8--| 
D|--6------4--|--2-------------| 
A|--4------2--|--0------7---6--| 
E|------------|----------------| 
 

GUITAR 2: 

 
E|------------------------------------------|-----------------------------------| 
B|------------------------------------------|-----------------------------------| 
G|------------------------------------------|-----------------------------------| 
D|--11--11--11--11------11---9--9--9-----9--|--11--11--11--11------11--11---10--| 
A|------------------12----------------9-----|------------------12---------------| 
E|------------------------------------------|-----------------------------------| 
 

Chorus/Estribillo: 

GUITAR 1: 

 
E|------------|----------------------| 
B|------------|----------------------| 
G|--6------2--|--4------9--9---8--8--| 
D|--6------2--|--4-------------------| 
A|--4------0--|--2------7--7---6--6--| 
E|------------|----------------------| 
 

GUITAR 2: 

 
E|---------------------------------------|------------------------------------| 
B|---------------------------------------|------------------------------------| 
G|----------9--8----------------9--8-----|----------9--8----------------------| 
D|--11--11--------9--9--11--11--------9--|--11--11--------11---11---9------9--| 
A|---------------------------------------|-----------------------------11-----| 
E|---------------------------------------|------------------------------------| 
 

GUITAR 1: 

 
E|------------|-------------------| 
B|------------|-------------------| 
G|--6------2--|--4------9---8--8--| 
D|--6------2--|--4----------------| 
A|--4------0--|--2------7---6--6--| 
E|------------|-------------------| 
 

GUITAR 2: 

 
E|---------------------------------------|--------------------------------------| 
B|---------------------------------------|--------------------------------------| 
G|----------9--8----------------9--8-----|----------9--8---------------13---11--| 
D|--11--11--------9--9--11--11--------9--|--11--11--------11--9-----------------| 
A|---------------------------------------|-----------------------11-------------| 
E|---------------------------------------|--------------------------------------| 
 

GUITAR 1: 

 
E|------------|----------------------| 
B|------------|----------------------| 
G|--6------2--|--4------9--9---8--8--| 
D|--6------2--|--4-------------------| 
A|--4------0--|--2------7--7---6--6--| 
E|------------|----------------------| 
 

GUITAR 2: 

 
E|---------------------------------------|------------------------------------| 
B|---------------------------------------|------------------------------------| 
G|----------9--8----------------9--8-----|----------9--8----------------------| 
D|--11--11--------9--9--11--11--------9--|--11--11--------11---11---9------9--| 
A|---------------------------------------|-----------------------------11-----| 
E|---------------------------------------|------------------------------------| 
 

GUITAR 1: 

 
E|------------|-----| 
B|------------|-----| 
G|--6------2--|--4--| 
D|--6------2--|--4--| 
A|--4------0--|--2--| 
E|------------|-----| 
 

GUITAR 2: 

 
E|---------------------------------------|-----------------------| 
B|---------------------------------------|-----------------------| 
G|----------9--8----------------9--8-----|------9--8-------------| 
D|--11--11--------9--9--11--11--------9--|--11--------11--9--11--| 
A|---------------------------------------|-----------------------| 
E|---------------------------------------|-----------------------| 
 

Outro: 

GUITAR 1: 

 
E|------------|------------| 
B|------------|------------| 
G|--6------2--|--9------5--| 
D|--6------2--|--9------5--| 
A|--4------0--|--7------3--| 
E|------------|------------| 
 

GUITAR 2: 

 
E|-------------------------------------------------------|--------------------------------------------------------------------| 
B|--9--------------------------9-------------------------|--12--------------------------------12------------------------------| 
G|-----9--11--8--9------8---------9--11--8--9--8---------|------12--14--11--12------11------------12--14--11--12--11----------| 
D|------------------11-----9----------------------11--9--|----------------------14------12----------------------------14--12--| 
A|-------------------------------------------------------|--------------------------------------------------------------------| 
E|-------------------------------------------------------|--------------------------------------------------------------------| 
 

GUITAR 1: 

 
E|------------|-------------|------| 
B|------------|-------------|------| 
G|--9------5--|--12------8--|--12--| 
D|--9------5--|--12------8--|--12--| 
A|--7------3--|--10------6--|--10--| 
E|------------|-------------|------| 
 

GUITAR 2: 

E|--------------------------------------------------------------------|--------------------------------------------------------|------| 
B|--12--------------------------------12------------------------------|--15--------------------------------15------------------|------| 
G|------12--14--11--12------11------------12--14--11--12--11----------|------15--17--14--15------14------------15--17--14--15--|--12--| 
D|----------------------14------12----------------------------14--12--|----------------------17------15------------------------|------| 
A|--------------------------------------------------------------------|--------------------------------------------------------|------| 
E|--------------------------------------------------------------------|--------------------------------------------------------|------| 
		  

See also:

tabs Mymp - Beauty And Madness tabs Mymp - Tell Me Where It Hurts (ver. 2) tabs Abingdon Boys School - Kimi No Uta tabs Mymp - Tell Me Where It Hurts (ver. 4) tabs New Starting Over - Story Ending tabs X Japan - Endless Rain
e-chords

Other versions:

tabs Shingeki No Kyojin - Guren No Yumiya
auto scroll beats size up size down change color hide chords drawings
tab show chords e-chords YouTube Clip e-chords hide all tabs e-chords go to top tab

share