Shinedown

The Crow And The Butterfly

Shinedown

tabs Expert expert

by  JESSGOMES

save to print version add songbook text version e-mail correct tuner
chordsukulelecavacokeyboardtabbassdrumsharmonicaflute Guitar Pro
close

there isn't a video lesson for this song

chords

The Crow And The Butterfly

	  		Verse: 
Acoustic 
2x 
E|------------------------------------------------------ 
B|-------2-------------2-------------1-------------1---- 
G|----2-----2-------2-----2-------2-----2-------2-----2- 
D|-----------------------------3-------------3---------- 
A|-0-------------0-------------------------------------- 
D|------------------------------------------------------ 

3x 
E|------------------------------------------------------ 
B|------------------------------------------------------ 
G|-------0-------------0-------------0-------------0---- 
D|----2-----2-------2-----2-------2-----2-------2-----2- 
A|-3-------------3-------------1-------------1---------- 
D|------------------------------------------------------ 

3x 
E|------------------------------------------------------ 
B|-------2-------------2-------------1-------------1---- 
G|----2-----2-------2-----2-------2-----2-------2-----2- 
D|-----------------------------3-------------3---------- 
A|-0-------------0-------------------------------------- 
D|------------------------------------------------------ 

2x 
E|------------------------------------------------------ 
B|------------------------------------------------------ 
G|-------0-------------0-------------0-------------0---- 
D|----2-----2-------2-----2-------2-----2-------2-----2- 
A|-3-------------3-------------1-------------1---------- 
D|------------------------------------------------------ 

Chorus: 
E|--------------------------------------------------------------------------------- 
B|--------------------------------------------------------------------------------- 
G|-----------------------------2----5--------------2----5--------------2----5------ 
D|-6-6-6--6-6-6--8-8-8---------2----5----3---------2----5----3---------2----5----3- 
A|-6-6-6--6-6-6--8-8-8------3--0----3----3------3--0----3----3------3--0----3----3- 
D|-6-6-6--6-6-6--8-8-8--3-0--------------3----0--------------3----0--------------3- 

E|-------------------------------------- 
B|-------------------------------------- 
G|------------------------------------2- 
D|------0----3----5----0----3----5----2- 
A|---3--0----3----5----0----3----5----0- 
D|-0----0----3----5----0----3----5------ 

verse 2: 
Acoustic 
5x 
E|------------------------------------------------------ 
B|-------0-------------0-------------0-------------0---- 
G|----2-----2-------2-----2----------------------------- 
D|--------------------------------3-----3-------3-----3- 
A|-0-------------0-------------------------------------- 
D|-----------------------------3-------------3---------- 

2x 
E|------------------------------------------------------------------ 
B|----------1----------------1----------------1----------------1---- 
G|-------0-----0----------0-----0----------0-----0----------0-----0- 
D|----2----------------2----------------2----------------2---------- 
A|-3----------------3----------------1----------------1------------- 
D|------------------------------------------------------------------ 

Chorus 2: 
Rhythm Guitar 
E|--------------------------------------------------------------------------------- 
B|--------------------------------------------------------------------------------- 
G|-----------------------------2----5--------------2----5--------------2----5------ 
D|-6-6-6--6-6-6--8-8-8---------2----5----3---------2----5----3---------2----5----3- 
A|-6-6-6--6-6-6--8-8-8------3--0----3----3------3--0----3----3------3--0----3----3- 
D|-6-6-6--6-6-6--8-8-8--3-0--------------3----0--------------3----0--------------3- 

E|-------------------------------------- 
B|-------------------------------------- 
G|------------------------------------2- 
D|------0----3----5----0----3----5----2- 
A|---3--0----3----5----0----3----5----0- 
D|-0----0----3----5----0----3----5------ 

Solo: 
Lead Guitar 
E|---------------------------------------13----------------------------------------- 
B|-15b16---15b16---16-15-13-15v---13b14------13-11-----13---13---------------------- 
G|-------------------------------------------------12--12b--12b--12b14--10------10v- 
D|--------------------------------------------------------------------------12------ 
A|---------------------------------------------------------------------------------- 
D|---------------------------------------------------------------------------------- 

E|-------13----15----15b17---18v--18b19--16--13--11-13-13v--11-13-13v- 
B|----13----13----13-------------------------------------------------- 
G|-14----------------------------------------------------------------- 
D|-------------------------------------------------------------------- 
A|-------------------------------------------------------------------- 
D|-------------------------------------------------------------------- 

E|---------------------------15b16-15b16-15b16-15b16-15b16-15b16-15b16r15-13- 
B|-13------------------------------------------------------------------------ 
G|-12b----12b13--10------10-------------------------------------------------- 
D|-------------------13------------------------------------------------------ 
A|--------------------------------------------------------------------------- 
D|--------------------------------------------------------------------------- 

E|-16-13-17b18--15--22--20v- 
B|-------------------------- 
G|-------------------------- 
D|-------------------------- 
A|-------------------------- 
D|-------------------------- 

E|--------------------------------------------12--15b17- 
B|------------------------------------13--15------------ 
G|-------------------------9--12--14-------------------- 
D|-------------12--14--15------------------------------- 
A|-12--14--15------------------------------------------- 
D|------------------------------------------------------ 

Rhythm Guitar 
2x 
E|------------------------------------------------ 
B|------------------------------------------------ 
G|-8-8-8-8-8--8--8----3---3----------------------- 
D|-8-8-8-8-8--8--8----3---3------3---3---3--3-3-3- 
A|-6-6-6-6-6--6--6----1---1------3---3---3--3-3-3- 
D|--------------------------7--5-3---3---3--3-3-3- 

E|-------------------------------------------------- 
B|-------------------------------------------------- 
G|-8-8-8-8-8--8--8----3---3----5---5---5------------ 
D|-8-8-8-8-8--8--8----3---3----5---5---5------------ 
A|-6-6-6-6-6--6--6----1---1----3---3---3----------3- 
D|------------------------------------------7--3---- 

Chorus 3: 
E|----------------------------------------------------------------------------- 
B|----------------------------------------------------------------------------- 
G|-2----5----------------2----5----------------2----5-------------------------- 
D|-2----5----3-----------2----5----3-----------2----5----3---------0----3----5- 
A|-0----3----3--------3--0----3----3--------3--0----3----3------3--0----3----5- 
D|-----------3----7-3--------------3----7-3--------------3----0----0----3----5- 

E|--------------------------------------------------------- 
B|--------------------------------------------------------- 
G|-2----5----------------2----5----------------2----5------ 
D|-2----5----3-----------2----5----3-----------2----5----3- 
A|-0----3----3--------3--0----3----3--------3--0----3----3- 
D|-----------3----7-3--------------3----7-3--------------3- 

E|-------------------------------------- 
B|-------------------------------------- 
G|------------------------------------2- 
D|------0----3----5----0----3----5----2- 
A|---3--0----3----5----0----3----5----0- 
D|-0----0----3----5----0----3----5------ 

E|--------------------------------------------------------------------------------- 
B|--------------------------------------------------------------------------------- 
G|------2----5--------------2----5--------------2----5--------------2----5-------2- 
D|------2----5----3---------2----5----3---------2----5----3---------2----5----3--2- 
A|---3--0----3----3----5-3--0----3----3------3--0----3----3------3--0----3----3--0- 
D|-0--------------3-------------------3----0--------------3----0--------------3---- 

Lead Guitar(This part is really hard to hear.. so everything might not  
be 100% accurate here, but its something like this) 
E|------------------------------------------------------12b14--13-12-10- 
B|------13\10---------------15b16-13----13------------------------------ 
G|-9/12-------8b9--8b10--------------14----14-1212b14------------------- 
D|---------------------------------------------------------------------- 
A|---------------------------------------------------------------------- 
D|---------------------------------------------------------------------- 

E|----------------------------------------- 
B|-13-10-13b15---13-10--10-8-10--8-10-8-10- 
G|---------------------------------------- 
D|---------------------------------------- 
A|---------------------------------------- 
D|---------------------------------------- 

E|-------------16b17----15----------15--------------15- 
B|-13h15-15h17-------17----15--17------17--15--17------ 
G|----------------------------------------------------- 
D|----------------------------------------------------- 
A|----------------------------------------------------- 
D|----------------------------------------------------- 

E|------------------------------------------------------- 
B|-17p15--17p15--17p15--13p10-13p10--13p10------------10- 
G|-----------------------------------------7-9--9-12----- 
D|------------------------------------------------------- 
A|------------------------------------------------------- 
D|------------------------------------------------------- 

Ending: 
Acoustic 
2x 
E|------------------------------------------------------ 
B|-------2-------------2-------------1-------------1---- 
G|----2-----2-------2-----2-------2-----2-------2-----2- 
D|-----------------------------3-------------3---------- 
A|-0-------------0-------------------------------------- 
D|------------------------------------------------------ 

E|-0- 
B|-1- 
G|-2- 
D|-2- 
A|-0- 
D|--- 
		  

See also:

tabs Bon Jovi - It's My Life tabs Kiss - Forever tabs Aerosmith - Dream On tabs Foo Fighters - Everlong (acústico) tabs The Doors - People Are Strange tabs The Offspring - All I Want
e-chords

Other versions:

tabs Shinedown - The Crow And The Butterfly
auto scroll beats size up size down change color hide chords drawings
tab show chords e-chords YouTube Clip e-chords hide all tabs e-chords go to top tab

share