Shenandoah

The Church On Cumberland Road

Shenandoah

tabs Advanced advanced

save to print version add songbook text version e-mail correct tuner
chordsukulelecavacokeyboardtabbassdrumsharmonicaflute Guitar Pro
close

there isn't a video lesson for this song

chords

The Church On Cumberland Road

	  		*********************************************************************** 
 
bh   =   bend & hold                             r   =   release bend 
 
\    =   slide down                              b   =   bend 
 
br   =   bend & release                          /   =   slide up 
 
*********************************************************************** 
 
 
 
FILLS IN CHORUS (play in order, listen to song to hear them) 
 
 
   Fill 1         Fill 2         Fill 3        Fill 2 
E------------------------------------------------------------- 
B-------6---------6-6\--6-6\----------6--------6-6\--6-6\----- 
G--3-5bh-5r-3-----5-5\--5-5\-----3-5bh-5r------5-5\--5-5\----- 
D----------------------------------------6-------------------- 
A------------------------------------------------------------- 
E------------------------------------------------------------- 
 
  
   Fill 4 (only in 1st chorus) 
E--1----------------------------| 
B---1-4-3-1-3-------------------| 
G------------1-2----------------| 
D-----------------1-0-0---------| 
A----------------3---3----------| 
E----------------------4b-1-----| 
 
 
 
LEAD SOLO 
 
 
E---------------------------------------------------------------- 
B----------3------3------3-3-----------------------3---6----8---- 
G----------2br-0----------0-0--------------------2b--5b--7bh-7r-- 
D-----0---------2-3-0-2-3-------5-5b-5--5-7br-5------------------ 
A-------------------------------7-8--5-5------------------------- 
E--1bh-1r-------------------------------------------------------- 
 
 
E-------10----------------------------------| 
B----10b--10br-----------------5-3----------| 
G--9b---------9br-7------------4-2-5-4-3----| 
D------------------7h9-7\---3/5----5-4-3----| 
A-------------------------------------------| 
E-------------------------------------------| 
 
 
ENDING 
 
 
E--------------| 
B--------------| 
G--------------| 
D--3-1---------| 
A-----3--------| 
E------3br-1---| 
 

By axehappy - [email protected] 
		  

See also:

tabs Charlie Daniels - Long Haired Country Boy (ver. 2) tabs Mindy Smith - One Moment More tabs Dueling Banjos - Dueling Banjos tabs John Denver - Take Me Home, Country Roads (ver. 2) tabs Kansas - Dust In The Wind tabs Irish song/Celtic - Patty
e-chords

Other versions:

tabs Shenandoah - The Church On Cumberland Road
auto scroll beats size up size down change color hide chords drawings
tab show chords e-chords YouTube Clip e-chords hide all tabs e-chords go to top tab

share