Shelter

Yes I Can

Shelter

tabs

save to print version add songbook text version e-mail correct tuner
chordsukulelecavacokeyboardtabbassdrumsharmonicaflute Guitar Pro
close

there isn't a video lesson for this song

chords

Yes I Can

	  		 
   Intro	Verse				Chorus 
E|------------|-------------------------------|-------------------------------------------------| 
B|------------|-------------------------(x4)--|-------------------------------------------(x2)--| 
G|------------|--5-5-5-5----------------------|-------------5-5-5-5--------------5-5-5-5--------| 
D|--5-5-5--8--|--5-5-5-5--5-5-5--8-8-8--------|--7-7-7-7-7--5-5-5-5---7-7-7-7-7--3-3-3-3--------| 
A|--5-5-5--8--|--3-3-3-3--5-5-5--8-8-8--------|--7-7-7-7-7--3-3-3-3---7-7-7-7-7-----------------| 
E|--3-3-3--6--|-----------3-3-3--6-6-6--------|--5-5-5-5-5------------5-5-5-5-5-----------------| 
 
   Repeat Verse/Chorus 
  
   Break							        Chorus/Solo  
E|-----------------|-----------------------|--------------------------|----------------------------------------------| 
B|-----------(x4)--|-----------------------|--------------------(x3)--|----------------------------------------(x2)--| 
G|--5-5-5-5--------|-----------------------|--------------------------|-----------------------------5-5-5-5----------| 
D|--5-5-5-5--------|--5-5-5-5--0-0--3-3-3--|--5-5-5-5--3-3-3-3--------|--7-7-7-7-7-7-7-7-7-7-7-7-7--3-3-3-3----------| 
A|--3-3-3-3--------|-----------------------|--------------------------|----------------------------------------------| 
E|-----------------|-----------------------|--------------------------|----------------------------------------------| 
 
   End C ... 
 

		  

Full key step upFull key step up
Half key step upHalf key step up
Half key step downHalf key step down
Full key step downFull key step down
hide glossary

See also:

tabs Guns N' Roses - Welcome to The Jungle tabs Guns N' Roses - Knockin' On Heaven's Door tabs 3 Doors Down - When I'm gone tabs Guns N' Roses - Don't Cry tabs Cheap Trick - The Flame tabs Aerosmith - Dream On
e-chords

Other versions:

tabs Shelter - Yes I Can
auto scroll beats size up size down change color hide chords drawings
tab show chords e-chords YouTube Clip e-chords hide all tabs e-chords go to top tab

share