Shelter

When 20 Summers Past

Shelter

tabs

save to print version add songbook text version e-mail correct tuner
chordsukulelecavacokeyboardtabbassdrumsharmonicaflute Guitar Pro
close

there isn't a video lesson for this song

chords

When 20 Summers Past

	  		 
   Intro 
E|---------------------------------------------------------------------------| 
B|---------------------------------------------------------------------------| 
G|-----------------6-6-6---------9-9-9----------6-6-6------------------------| 
D|--9-7-6---4-4-4--6-6-6--7-7-7--9-9-9---4-4-4--6-6-6--7-7-7--9-7-6----------| 
A|--9-7-6---4-4-4--4-4-4--7-7-7--7-7-7---4-4-4--4-4-4--7-7-7--9-7-6----------| 
E|--7-5-4---2-2-2---------5-5-5----------2-2-2---------5-5-5--7-5-4----------| 
 
E|---------------------------------------------------------------------------| 
B|---------------------------------------------------------------------------| 
G|---------6-6-6---------9-9-9----------6-6-6--------------------------------| 
D|--4-4-4--6-6-6--7-7-7--9-9-9---4-4-4--6-6-6--7-----------------------------| 
A|--4-4-4--4-4-4--7-7-7--7-7-7---4-4-4--4-4-4--7-----------------------------| 
E|--2-2-2---------5-5-5----------2-2-2---------5-----------------------------| 
 
   Verse 
E|---------------------------------------------------------------------------| 
B|---------------------------------------------------------------------(x2)--| 
G|---------6-6-6---------9-9-9----------6-6-6--------------------------------| 
D|--4-4-4--6-6-6--7-7-7--9-9-9---4-4-4--6-6-6--7-7-7--9-7-6------------------| 
A|--4-4-4--4-4-4--7-7-7--7-7-7---4-4-4--4-4-4--7-7-7--9-7-6------------------| 
E|--2-2-2---------5-5-5----------2-2-2---------5-5-5--7-5-4------------------| 
 
   Bridge 
E|---------------------------------------------------------------------------| 
B|---------------------------------------------------------------------(x2)--| 
G|--*-*-*-*-*-*-*-*-*-*-*--9-9-9---------------------------------------------| 
D|--4-4-4-4-4-4-4-4-4-4-4--9-9-9---------------------------------------------| 
A|--4-4-4-4-4-4-4-4-4-4-4--7-7-7---------------------------------------------| 
E|--2-2-2-2-2-2-2-2-2-2-2----------------------------------------------------| 
 
   Chorus 
E|------0-------0-------0------------------0-------0-------0-----------------| 
B|--------0-------0-------0------------------0-------0-------0---------------| 
G|--6-6-----6-6-----7-7----------------6-6-----6-6-----7-7------9-9-9-9------| 
D|--6-6-----6-6-----7-7-----7-7--9-9---6-6-----6-6-----7-7------9-9-9-9------| 
A|--4-4-----4-4-----5-5-----7-7--9-9---4-4-----4-4-----5-5------7-7-7-7------| 
E|--------------------------5-5--7-7-----------------------------------------| 
 
E|---------------------------------------------------------------------------| 
B|---------------------------------------------------------------------------| 
G|--6-6-6-6-6--7-7-7-------7-7---6-6-6-6-6--7-7-7--9-9-9-9-------------------| 
D|--------------------7-7-------------------7-7-7--9-9-9-9-------------------| 
A|------------------------------------------5-5-5--7-7-7-7-------------------| 
E|---------------------------------------------------------------------------| 
 
   Repeat Verse/Chorus 
 
   Break 
E|-----------------|---------------------------------------------------------| 
B|-----------------|---------------------------------------------------(x3)--| 
C|-----------------|---------------------------------------------------------| 
D|--4--4-4-4-4--4--|--4-4-4-4-4-4-4--7-7-7-7-7--9-9-9-9-9--------------------| 
A|--4--4-4-4-4--4--|--4-4-4-4-4-4-4--7-7-7-7-7--9-9-9-9-9--------------------| 
E|--2--2-2-2-2--2--|--2-2-2-2-2-2-2--5-5-5-5-5--7-7-7-7-7--------------------| 
 
E|---------------------------------------------------------------------------| 
B|---------------------------------------------------------------------------| 
C|-----------------7-7-7-7-7--9----------------------------------------------| 
D|--4-4-4-4-4-4-4--7-7-7-7-7--9----------------------------------------------| 
A|--4-4-4-4-4-4-4--5-5-5-5-5--7----------------------------------------------| 
E|--2-2-2-2-2-2-2------------------------------------------------------------| 
 
   Repeat Verse/Bridge/Chorus 
 
   End Fis ... 
 

		  

See also:

tabs Guns N' Roses - Welcome to The Jungle tabs Guns N' Roses - Knockin' On Heaven's Door tabs 3 Doors Down - When I'm gone tabs Guns N' Roses - Don't Cry tabs Cheap Trick - The Flame tabs Aerosmith - Dream On
e-chords

Other versions:

tabs Shelter - When 20 Summers Past
auto scroll beats size up size down change color hide chords drawings
tab show chords e-chords YouTube Clip e-chords hide all tabs e-chords go to top tab

share