Shelter

Surrender to Your TV

Shelter

tabs

save to print version add songbook text version e-mail correct tuner
chordsukulelecavacokeyboardtabbassdrumsharmonicaflute Guitar Pro
close

there isn't a video lesson for this song

chords

Surrender to Your TV

	  		 
   Intro 
E|---------------------------------------------------------------------------| 
B|---------------------------------------------------------------------(x2)--| 
C|---------------------------------------------------------------------------| 
D|---------------------------------------------------------------------------| 
A|--7-7--7-7--8---7-7--7-7--10---7-7--7-7--8---7-7--7-7--5-------------------| 
E|---------------------------------------------------------------------------| 
 
E|---------------------------------------------------------------------------| 
B|---------------------------------------------------------------------(x2)--| 
C|--9-9-9-9-10--9-9-9-9-12---9-9-9-9-10--9-9-9-9--7--------------------------| 
D|--9-9-9-9-10--9-9-9-9-12---9-9-9-9-10--9-9-9-9--7--------------------------| 
A|--7-7-7-7-8---7-7-7-7-10---7-7-7-7-8---7-7-7-7--5--------------------------| 
E|---------------------------------------------------------------------------| 
   
    Verse 
E|---------------------------------------------------------------------------| 
B|--*-*-*-*-----*-*-*-*------*-*-*-*-----*-*-*-*-----------------------(x4)--| 
C|--9-9-9-9-10--9-9-9-9-12---9-9-9-9-10--9-9-9-9--7--------------------------| 
D|--9-9-9-9-10--9-9-9-9-12---9-9-9-9-10--9-9-9-9--7--------------------------| 
A|--7-7-7-7-8---7-7-7-7-10---7-7-7-7-8---7-7-7-7--5--------------------------| 
E|---------------------------------------------------------------------------| 
 
E|---------------------------------------------------------------------------| 
B|---------------------------------------------------------------------(x2)--| 
C|--9-9-9-9-10--9-9-9-9-12---9-9-9-9-10--9-9-9-9--7--------------------------| 
D|--9-9-9-9-10--9-9-9-9-12---9-9-9-9-10--9-9-9-9--7--------------------------| 
A|--7-7-7-7-8---7-7-7-7-10---7-7-7-7-8---7-7-7-7--5--------------------------| 
E|---------------------------------------------------------------------------| 
 
 
   Chorus 
E|--------------------|------------------------------------------------------| 
B|--------------(x5)--|------------------------------------------------------| 
C|--9-9-9--7-5--------|--10-10-12--------------------------------------------| 
D|--9-9-9--7-5--------|--10-10-12--------------------------------------------| 
A|--7-7-7--5-3--------|--8--8--10--------------------------------------------| 
E|--------------------|------------------------------------------------------| 
 
   Repeat Verse/Chorus x2 
 

		  

See also:

tabs Guns N' Roses - Welcome to The Jungle tabs Guns N' Roses - Knockin' On Heaven's Door tabs 3 Doors Down - When I'm gone tabs Guns N' Roses - Don't Cry tabs Cheap Trick - The Flame tabs Aerosmith - Dream On
e-chords

Other versions:

tabs Shelter - Surrender to Your TV
auto scroll beats size up size down change color hide chords drawings
tab show chords e-chords YouTube Clip e-chords hide all tabs e-chords go to top tab

share