Shelter

Song Of Brahma

Shelter

tabs Beginner beginner

save to print version add songbook text version e-mail correct tuner
chordsukulelecavacokeyboardtabbassdrumsharmonicaflute Guitar Pro
close

there isn't a video lesson for this song

chords

Song Of Brahma

	  		 
   Intro		        Verse 
E|-----|----------------------|--------------------------------------------------------| 
B|-----|--------0-------(x )--|--------0--------------0--------------------------(x )--| 
G|--4--|------0---0-----------|------0---0----------0---0------7-7-7-7-----------------| 
D|--4--|----4-------4---------|----4-------4------4-------4----7-7-7-7--7-7-7-7--------| 
A|--2--|--2-------------------|--2--------------2--------------5-5-5-5--7-7-7-7--------| 
E|-----|----------------------|-----------------------------------------5-5-5-5--------| 
 
   Chorus 
E|-------------------------------------------------------------------------------------------| 
B|-------------------------------------------------------------------------------------(x2)--| 
G|------------------------------------------------------------------------6-6-6--6-9---------| 
D|--5-5-5-5--7-7-7--5-7--9-9-9-9--9-7-5--7-5-4---5-5-5-5--7-7-7-5-7--4-4--4-4-4--4-7---------| 
A|-------------------------------------------------------------------4-4---------------------| 
E|-------------------------------------------------------------------2-2---------------------| 
 
   Bridge 
 
     E|-------------------------------------------------------------------| 
     B|-------------------------------------------------------------------| 
     G|--4-4-4-4-4-4--7-7-7-7--6-6-6-6---4-4-4-4-4-4-4--------------------| 
  1. D|-------------------------------------------------7-7-7-7-----------| 
     A|----------------------------------------------------------7-7-7-7--| 
     E|-------------------------------------------------------------------| 
 
     E|-------------------------------------------------------------------| 
     B|--------0--------------0-------------------------------------(x2)--| 
     G|------0---0----------0---0------7-7-7-7----------------------------| 
  2. D|----4-------4------4-------4----7-7-7-7--7-7-7-7-------------------| 
     A|--2--------------2--------------5-5-5-5--7-7-7-7-------------------| 
     E|-----------------------------------------5-5-5-5-------------------| 
 
 
   Repeat Verse/Chorus 
 
   Break 
   ____________________  ______________________________________________________________ 
  | Guitar 	        | Bass 
E|---------------------|---------------------------------------------------------------| 
B|--------0------(x )--|---------------------------------------------------------(x2)--| 
G|------0---0----------|---------------------------------------------------------------| 
D|----4-------4--------|---------------------------------------------------------------| 
A|--2------------------|--2-2-2-2--0-0-0-0---------------------------------------------| 
E|---------------------|--------------------3-3-3-3--2-2-2-2--3------------------------| 
 
   Repeat Verse 
 
   Chorus 
E|------------------------------------------------------------------------------------------|------|| 
B|------------------------------------------------------------------------------------(x2)--|------|| 
G|------------------------------------------------------------------------6-6-6--6-9--------|--11--|| 
D|--5-5-5-5--7-7-7--5-7--9-9-9-9--9-7-5--7-5-4---5-5-5-5--7-7-7-5-7--4-4--4-4-4--4-7--------|--9---|| 
A|-------------------------------------------------------------------4-4--------------------|------|| 
E|-------------------------------------------------------------------2-2--------------------|------|| 
 

		  

See also:

tabs Live - Lightning Crashes tabs R.E.M. - Losing my religion tabs Aerosmith - I Don't Want To Miss A Thing tabs Blue Oyster Cult - Dont Fear The Reaper tabs Cheap Trick - The Flame tabs Guns N' Roses - Estranged
e-chords

Other versions:

tabs Shelter - Song Of Brahma
auto scroll beats size up size down change color hide chords drawings
tab show chords e-chords YouTube Clip e-chords hide all tabs e-chords go to top tab

share