Shelter

Metarmophosis

Shelter

tabs

save to print version add songbook text version e-mail correct tuner
chordsukulelecavacokeyboardtabbassdrumsharmonicaflute Guitar Pro
close

there isn't a video lesson for this song

chords

Metarmophosis

	  		 
   Intro				   
E|---------------------------------------------------------------------------| 
B|---------------------------------------------------------------------(x4)--| 
G|---------------------------------------------------------------------------| 
D|---------------------------------------------------------------------------| 
A|--3/5-5-5-5-5-5--8/5-5-5-5-5-5---------------------------------------------| 
E|---------------------------------------------------------------------------| 
 
E|---------5---5---5----|-----------5---5---5--------------------------------| 
B|-----------5---5---5--|-------------5---5---5------------------------(x6)--| 
G|--*-*-----------------|--*--*----------------------------------------------| 
D|--7-7-7---------------|--10-9--7-------------------------------------------| 
A|--7-7-7---------------|--10-9--7-------------------------------------------| 
E|--5-5-5---------------|--8--7--5-------------------------------------------| 
 
   Chorus 
E|---------------------------------------------------------------------------| 
B|---------------------------------------------------------------------(x2)--| 
G|--7-7-7-7--9-9-9-9--10-10-10-10--12-12-10-12-10-12-10----------------------| 
D|--7-7-7-7--9-9-9-9--10-10-10-10--12-12-10-12-10-12-10----------------------| 
A|--5-5-5-5--7-7-7-7--8--8--8--8---10-10-8--10-8--10-8-----------------------| 
E|---------------------------------------------------------------------------| 
 
   Repeat Verse/Chorus 
 
   Repeat Intro 
 
   Outro 
E|---------5---5---5----|-----------5---5---5----------|---------------------|| 
B|-----------5---5---5--|-------------5---5---5--(x6)--|---------------------|| 
G|--*-*-----------------|--*--*------------------------|---------------------|| 
D|--7-7-7---------------|--10-9--7---------------------|--7------------------|| 
A|--7-7-7---------------|--10-9--7---------------------|--7------------------|| 
E|--5-5-5---------------|--8--7--5---------------------|--5------------------|| 
 

		  

See also:

tabs Simon & Garfunkel - Sounds of silence tabs R.E.M. - Everybody Hurts tabs Guns N' Roses - Knockin' On Heaven's Door tabs John Mayer - Belief tabs The Wonders - That Thing You Do tabs Cheap Trick - The Flame
e-chords

Other versions:

tabs Shelter - Metarmophosis
auto scroll beats size up size down change color hide chords drawings
tab show chords e-chords YouTube Clip e-chords hide all tabs e-chords go to top tab

share