Shelter

Message Of the Bhagavat

Shelter

tabs Expert expert

save to print version add songbook text version e-mail correct tuner
chordsukulelecavacokeyboardtabbassdrumsharmonicaflute Guitar Pro
close

there isn't a video lesson for this song

chords

Message Of the Bhagavat

	  		 
   Intro 
E|---------------------------------------------------------------------------| 
B|---------------------------------------------------------------------(x4)--| 
C|---------7---------7-10---------10-12--14-14-14-14-14-14-14----------------| 
D|--2-2-2--9--2-2-2--9-10--2-2-2--10-12--14-14-14-14-14-14-14----------------| 
A|--2-2-2--7--2-2-2--7-8---2-2-2--8--10--12-12-12-12-12-12-12----------------| 
E|--0-0-0-----0-0-0--------0-0-0---------------------------------------------| 
 
   Verse 
E|----------------------------------|----------------------------------------| 
B|----------------------------(x4)--|----------------------------------(x4)--| 
C|-*-*-*-*--*-*-*-*-*-*-*-----------|----------------------------------------| 
D|-2-2-2-2--2-2-2-2-2-2-2--5--------|--2-0-0-2--2-0-0-2-0-2-0-0--5-----------| 
A|-2-2-2-2--2-2-2-2-2-2-2--5--------|--2-0-0-2--2-0-0-2-0-2-0-0--5-----------| 
E|-0-0-0-0--0-0-0-0-0-0-0--3--------|--0-0-0-0--0-0-0-0-0-0-0-0--3-----------| 
  
   Chorus 
E|---------------------------------------------------------------------------| 
B|---------------------------------------------------------------------(x4)--| 
C|---------7---------7-10---------10-12--14-14-14-14-14-14-14----------------| 
D|--2-2-2--9--2-2-2--9-10--2-2-2--10-12--14-14-14-14-14-14-14----------------| 
A|--2-2-2--7--2-2-2--7-8---2-2-2--8--10--12-12-12-12-12-12-12----------------| 
E|--0-0-0-----0-0-0--------0-0-0---------------------------------------------| 
 
   Bridge 
E|---------------------------------------------------------------------------| 
B|---------------------------------------------------------------------(x4)--| 
C|--5-7--5-7-----------------------------------------------------------------| 
D|--5-7--5-7--5--------------------------------------------------------------| 
A|--3-5--3-5----5------------------------------------------------------------| 
E|---------------------------------------------------------------------------| 
 
   Repeat Verse 
 
   Bridge 
E|---------------------------------------------------------------------------| 
B|---------------------------------------------------------------------------| 
C|--*-*-*-*-*-*--10-10-10-10-10-10-------------------------------------------| 
D|--5-5-5-5-5-5--10-10-10-10-10-10-------------------------------------------| 
A|--5-5-5-5-5-5--8--8--8--8--8--8--------------------------------------------| 
E|--3-3-3-3-3-3--------------------------------------------------------------| 
 
   Break/Solo (Guitar/Bass) 
E|---------------------------------------------------------------------------| 
B|---------------------------------------------------------------------(x4)--| 
C|---------------------------------------------------------------------------| 
D|---------------------------------------------------------------------------| 
A|--------7--------------------7--10-10-10--8-8------------------------------| 
E|--0-0-0---0-0-0--0-1--0-0-0------------------------------------------------| 
 
E|---------------------------------------------------------------------------| 
B|---------------------------------------------------------------------(x4)--| 
C|---------7---------7-10---------10-12--14-14-14-14-14-14-14----------------| 
D|--2-2-2--9--2-2-2--9-10--2-2-2--10-12--14-14-14-14-14-14-14----------------| 
A|--2-2-2--7--2-2-2--7-8---2-2-2--8--10--12-12-12-12-12-12-12----------------| 
E|--0-0-0-----0-0-0--------0-0-0---------------------------------------------| 
 
   Outro 
E|----------------------|----------------------------------------------------|| 
B|----------------(x4)--|----------------------------------------------------|| 
C|--5-7--5-7------------|----------------------------------------------------|| 
D|--5-7--5-7--5---------|--2-2-2-2-2-----------------------------------------|| 
A|--3-5--3-5----5-------|--2-2-2-2-2-----------------------------------------|| 
E|----------------------|--0-0-0-0-0-----------------------------------------|| 
 
 

		  

See also:

tabs Simon & Garfunkel - Sounds of silence tabs R.E.M. - Everybody Hurts tabs Guns N' Roses - Knockin' On Heaven's Door tabs John Mayer - Belief tabs The Wonders - That Thing You Do tabs Cheap Trick - The Flame
e-chords

Other versions:

tabs Shelter - Message Of the Bhagavat
auto scroll beats size up size down change color hide chords drawings
tab show chords e-chords YouTube Clip e-chords hide all tabs e-chords go to top tab

share