Shelter

Letter To A Friend

Shelter

tabs

save to print version add songbook text version e-mail correct tuner
chordsukulelecavacokeyboardtabbassdrumsharmonicaflute Guitar Pro
close

there isn't a video lesson for this song

chords

Letter To A Friend

	  		 
   Intro				           Verse 
E|-----------------------------------------------|---------------------------| 
B|-----------------------------------------------|---------------------(x )--| 
G|--*-*-*-*-*-*-*-*-----------5-------------5----|---------------------------| 
D|--7-7-7-7-7-7-7-7--7-7-7--7-5-5--7-7-7--7-5-5--|--7-7-7-7--5-5-5-5---------| 
A|--7-7-7-7-7-7-7-7--7-7-7--7-3-5--7-7-7--7-3-5--|--7-7-7-7--5-5-5-5---------| 
E|--5-5-5-5-5-5-5-5--5-5-5--5---3--5-5-5--5---3--|--5-5-5-5--3-3-3-3---------| 
 
                     Chorus 
E|-----------------|---------------------------------------------------------| 
B|-----------------|---------------------------------------------------(x2)--| 
G|--*-*-*-*-*-*-*--|--9-9-9-9--11-11-11--12-12-12--14-14-14-14---------------| 
D|--7-7-7-7-7-7-7--|--9-9-9-9--11-11-11--12-12-12--14-14-14-14---------------| 
A|--7-7-7-7-7-7-7--|--7-7-7-7--9--9--9---10-10-10--12-12-12-12---------------| 
E|--5-5-5-5-5-5-5--|---------------------------------------------------------| 
 
E|------------------------------|--------------------------------------------| 
B|------------------------(x3)--|--------------------------------------------| 
G|------------------------------|--*-*-*-*--*-*-*-*--------------------------| 
D|--3-3-3-3-3--5-5-5-5-5--------|--3-3-3-3--5-5-5-5--------------------------| 
A|--3-3-3-3-3--5-5-5-5-5--------|--3-3-3-3--5-5-5-5--------------------------| 
E|--1-1-1-1-1--3-3-3-3-3--------|--1-1-1-1--3-3-3-3--------------------------| 
 
   Repeat Verse/Chorus 
 
   Break              Outro 
E|-----------------------|---------------------------------------------------| 
B|-----------------------|---------------------------------------------(x4)--| 
G|--------*-*-*-*-*-*-*--|--9-9-9-9--11-11-11--12-12-12--14-14-14-14---------| 
D|--7--7--7-7-7-7-7-7-7--|--9-9-9-9--11-11-11--12-12-12--14-14-14-14---------| 
A|--7--7--7-7-7-7-7-7-7--|--7-7-7-7--9--9--9---10-10-10--12-12-12-12---------| 
E|--5--5--5-5-5-5-5-5-5--|---------------------------------------------------| 
 

		  

See also:

tabs Simon & Garfunkel - Sounds of silence tabs R.E.M. - Everybody Hurts tabs Guns N' Roses - Knockin' On Heaven's Door tabs John Mayer - Belief tabs The Wonders - That Thing You Do tabs Cheap Trick - The Flame
e-chords

Other versions:

tabs Shelter - Letter To A Friend
auto scroll beats size up size down change color hide chords drawings
tab show chords e-chords YouTube Clip e-chords hide all tabs e-chords go to top tab

share