Shelter

Killer of My Dreams

Shelter

tabs

save to print version add songbook text version e-mail correct tuner
chordsukulelecavacokeyboardtabbassdrumsharmonicaflute Guitar Pro
close

there isn't a video lesson for this song

chords

Killer of My Dreams

	  		 
   Intro 
E|------------|-------------------------------------------------------------------------------| 
B|------------|-------------------------------------------------------------------------------| 
G|--9-9--9-9--|--9-9-9-9--5-5-5--7-----9-9-9-9--7-7-7--6-7-7--9-9-9-9--5-5-5--7-----9-9--9-9--| 
D|--9-9--9-9--|--9-9-9-9--5-5-5--7-7---9-9-9-9--5-5-5--4-7-7--9-9-9-9--5-5-5--7-7---9-9--9-9--| 
A|--7-7--7-7--|--7-7-7-7--3-3-3--5-7---7-7-7-7-----------5-5--7-7-7-7--3-3-3--5-7---7-7--7-7--| 
E|------------|--------------------5--------------------------------------------5-------------| 
 
   Verse/Chorus 
E|-------------------------------------------------------|------------------------|-----------| 
B|-------------------------------------------------(x )--|------------------(x )--|-----------| 
G|--9-9-9-9--5-5-5-5--7-----9-9-9-9--7-7-7--6-7-7--------|--5-5----7---7----------|--5--------| 
D|--9-9-9-9--5-5-5-5--7-7---9-9-9-9--5-5-5--4-7-7--------|--5-5-5--7-7-7-7--------|--5--------| 
A|--7-7-7-7--3-3-3-3--5-7---7-7-7-7-----------5-5--------|--3-3-5--5-7-5-7--------|--3--------| 
E|----------------------5--------------------------------|------3----5---5--------|-----------| 
 
   Repeat Verse/Chorus 
 
   Break 
E|-----|---------------------------------------------------------------------| 
B|-----|---------------------------------------------------------------------| 
G|-----|------------------------------------------------7-7-7--9-9-9---------| 
D|--2--|--------------------5-4-------------------------5-5-5--7-7-7---------| 
A|--2--|--7--3--5--0--5/7--------5---7--3--5--0---5/7------------------------| 
E|--0--|---------------------------------------------------------------------| 
 
  Repeat Verse/Chorus 
 
  End E ... 
 

		  

See also:

tabs Guns N' Roses - Welcome to The Jungle tabs Guns N' Roses - Knockin' On Heaven's Door tabs 3 Doors Down - When I'm gone tabs Guns N' Roses - Don't Cry tabs Cheap Trick - The Flame tabs Aerosmith - Dream On
e-chords

Other versions:

tabs Shelter - Killer of My Dreams
auto scroll beats size up size down change color hide chords drawings
tab show chords e-chords YouTube Clip e-chords hide all tabs e-chords go to top tab

share