Shelter

If There's Only Today

Shelter

tabs

save to print version add songbook text version e-mail correct tuner
chordsukulelecavacokeyboardtabbassdrumsharmonicaflute Guitar Pro
close

there isn't a video lesson for this song

chords

If There's Only Today

	  		 
   Intro		 Verse 
E|---------------------|-----------------------------------------------------| 
B|---------------------|--*-*-*-*-*-------------*-*-*-*-*--------------------| 
G|--5----5----5---5----|--7-7-7-7-7--*-*-*-*-*--5-5-5-5-5--------------------| 
D|--5-5--5-5--5-5-5-5--|--7-7-7-7-7--5-5-5-5-5--5-5-5-5-5--5-5---------------| 
A|--3-5--3-5--3-5-3-5--|--5-5-5-5-5--5-5-5-5-5--3-3-3-3-3--5-5---------------| 
E|----3----3----3---3--|-------------3-3-3-3-3-------------3-3---------------| 
 
E|---------------------------------------------------------------------------| 
B|--*-*-*-*-*-------------*-*-*-*--------*-*-*-*-*-------------*-*-*-*-------| 
G|--7-7-7-7-7--*-*-*-*-*--5-5-5-5--------7-7-7-7-7--*-*-*-*-*--5-5-5-5-------| 
D|--7-7-7-7-7--5-5-5-5-5--5-5-5-5--3-3---7-7-7-7-7--5-5-5-5-5--5-5-5-5--5-5--| 
A|--5-5-5-5-5--5-5-5-5-5--3-3-3-3--3-3---5-5-5-5-5--5-5-5-5-5--3-3-3-3--5-5--| 
E|-------------3-3-3-3-3-----------1-1--------------3-3-3-3-3-----------3-3--| 
 
E|---------------------------------------------------------------------------| 
B|--*-*-*-*-*-------------*-*-*-*-*-*-*--------------------------------------| 
G|--7-7-7-7-7--*-*-*-*-*--5-5-5-5-5-5-5-5-5-5-5------------------------------| 
D|--7-7-7-7-7--5-5-5-5-5--5-5-5-5-5-5-5-5-5-5-5------------------------------| 
A|--5-5-5-5-5--5-5-5-5-5--3-3-3-3-3-3-3-3-3-3-3------------------------------| 
E|-------------3-3-3-3-3-----------------------------------------------------| 
 
   Chorus 
E|------------------|--------------------------------------------------------| 
B|------------(x4)--|--------------------------------------------------------| 
G|--7----5----------|--------------------------------------------------------| 
D|--7-5--5-5--------|--7-7-7-7-7-7-7-7-7-7-7---------------------------------| 
A|--5-5--3-5--------|--7-7-7-7-7-7-7-7-7-7-7---------------------------------| 
E|----3----3--------|--5-5-5-5-5-5-5-5-5-5-5---------------------------------| 
 
   Repeat Verse/Chorus 
 
   Solo 
E|---------------------------------------------------------------------------| 
B|---------------------------------------------------------------------(x3)--| 
G|--11-11-11-11--12-12-12-12-------------------------------------------------| 
D|----------------------------12-14-12-14-12-14-12-14-12-14------------------| 
A|---------------------------------------------------------------------------| 
E|---------------------------------------------------------------------------| 
 
E|---------------------------------------------------------------------------| 
B|---------------------------------------------------------------------------| 
G|--11-11-11-11--12-12-12-12--*-*-*-*-*-*-*----------------------------------| 
D|----------------------------5-5-5-5-5-5-5-5-5-5-5--------------------------| 
A|----------------------------5-5-5-5-5-5-5-5-5-5-5--------------------------| 
E|----------------------------3-3-3-3-3-3-3-3-3-3-3--------------------------| 
 
   Repeat Verse/Chorus 
 

		  

See also:

tabs Live - Lightning Crashes tabs R.E.M. - Losing my religion tabs Aerosmith - I Don't Want To Miss A Thing tabs Blue Oyster Cult - Dont Fear The Reaper tabs Cheap Trick - The Flame tabs Guns N' Roses - Estranged
e-chords

Other versions:

tabs Shelter - If There's Only Today
auto scroll beats size up size down change color hide chords drawings
tab show chords e-chords YouTube Clip e-chords hide all tabs e-chords go to top tab

share