Shelter

I Can't Change History

Shelter

tabs

save to print version add songbook text version e-mail correct tuner
chordsukulelecavacokeyboardtabbassdrumsharmonicaflute Guitar Pro
close

there isn't a video lesson for this song

chords

I Can't Change History

	  		 
   Intro 
E|----4---4-4---4----4-4---4---4-4---4----4-4--------------------------------| 
B|--2---2-----2---2------2---2-----2----2------------------------------------| 
C|---------------------------------------------------------------------------| 
D|---------------------------------------------------------------------------| 
A|---------------------------------------------------------------------------| 
E|---------------------------------------------------------------------------| 
 
   Verse 
E|---------------------------------------------------------------------------| 
B|---------------------------------------------------------------------(x )--| 
C|--6-6-6-6-6-6-6-6-------------------6-6-6-6-6--6--6-6----------------------| 
D|--6-6-6-6-6-6-6-6--4-4-4-4-4-4-4-4--6-6-6-6-6--6--6-6----------------------| 
A|--4-4-4-4-4-4-4-4--4-4-4-4-4-4-4-4--4-4-4-4-4--4--4-4----------------------| 
E|-------------------2-2-2-2-2-2-2-2-----------------------------------------| 
 
   Chorus 
E|---------------------------------------------------------------------------| 
B|---------------------------------------------------------------------(x )--| 
C|--6-6-6-6-6-6-6-6-------------------6-6-6-6-6--6--6-6----------------------| 
D|--6-6-6-6-6-6-6-6--4-4-4-4-4-4-4-4--6-6-6-6-6--6--6-6----------------------| 
A|--4-4-4-4-4-4-4-4--4-4-4-4-4-4-4-4--4-4-4-4-4--4--4-4----------------------| 
E|-------------------2-2-2-2-2-2-2-2-----------------------------------------| 
 
   Repeat Verse/Chorus 
 
   Outro 
E|----4---4-4---4----4-4---4---4-4---4----4-4--------------------------------|| 
B|--2---2-----2---2------2---2-----2----2------------------------------------|| 
C|-----------------------------------------------6---------------------------|| 
D|-----------------------------------------------6---------------------------|| 
A|-----------------------------------------------4---------------------------|| 
E|---------------------------------------------------------------------------|| 
 

		  

See also:

tabs Simon & Garfunkel - Sounds of silence tabs R.E.M. - Everybody Hurts tabs Guns N' Roses - Knockin' On Heaven's Door tabs John Mayer - Belief tabs The Wonders - That Thing You Do tabs Cheap Trick - The Flame
e-chords

Other versions:

tabs Shelter - I Can't Change History
auto scroll beats size up size down change color hide chords drawings
tab show chords e-chords YouTube Clip e-chords hide all tabs e-chords go to top tab

share