Shelter

I Am Rock

Shelter

tabs

save to print version add songbook text version e-mail correct tuner
chordsukulelecavacokeyboardtabbassdrumsharmonicaflute Guitar Pro
close

there isn't a video lesson for this song

chords

I Am Rock

	  		 
   Intro  
 
     E|------------(x2)-|---------------------------------------------------------------| 
     B|-----------------|---------------------------------------------------------------| 
     C|-----------------|---------------------------------------------------------------| 
  1. D|----------7-9-7--|------------------7-9-7-----------9--9-9-7-----------7-9-7-----| 
     A|--5--5-5---------|--5--5-5---5--5-5--------5--5-5--------------5--5-5---------5--| 
     E|-----------------|---------------------------------------------------------------| 
 
     E|---------------------------------------------------------------------------------| 
     B|---------------------------------------------------------------------------------| 
     C|--7--7--12--7--------------------------------------------------------------------| 
  2. D|--7--7--12--7--------------------------------------------------------------------| 
     A|--5--5--10--5--------------------------------------------------------------------| 
     E|---------------------------------------------------------------------------------| 
 
   Verse                              Bridge 
E|----------------------------------|------------------|----------------------------| 
B|----------------------------------|-------------(x2)-|----------------------------| 
C|--9-9-9----------------7-7-7-7-7--|--9-9--11-11------|--9-9--12-12--14-14---------| 
D|--9-9-9--7-7-7--5-5-5--7-7-7-7-7--|--9-9--11-11------|--9-9--12-12--14-14--5-5-5--| 
A|--7-7-7--7-7-7--5-5-5--5-5-5-5-5--|--7-7--9--9-------|--7-7--10-10--12-12--5-5-5--| 
E|---------5-5-5--3-3-3-------------|------------------|---------------------3-3-3--| 
   
   Chorus 
 
     E|----------------------14-14-14--14-14-15-14--14-14-14--14-14-15-14--12-10-12-/14--| 
     B|----------------------------------------------------------------------------------| 
     C|--7-7-----------------------------------------------------------------------------| 
  1. D|--7-7--5-5--7-7-7-7---------------------------------------------------------------| 
     A|--5-5--5-5--7-7-7-7---------------------------------------------------------------| 
     E|-------3-3--5-5-5-5---------------------------------------------------------------| 
 
     E|----------------------------------------------------------------------------------| 
     B|----------------------------------------------------------------------------------| 
     C|--7-7-----------------7-7-7-7-7-7-7-7-7-7-7-7-7-7-7-7-----------------------------| 
  2. D|--7-7--5-5--7-7-7-7---7-7-7-7-7-7-7-7-7-7-7-7-7-7-7-7--9-9-9-9-9-9-9-9-9-9-9-9----| 
     A|--5-5--5-5--7-7-7-7---5-5-5-5-5-5-5-5-5-5-5-5-5-5-5-5--9-9-9-9-9-9-9-9-9-9-9-9----| 
     E|-------3-3--5-5-5-5------------------------------------7-7-7-7-7-7-7-7-7-7-7-7----| 
 
 
   Pre-Verse 
E|----------------------------------------------------------------------------------| 
B|----------------------------------------------------------------------------------| 
C|--7-7-7-7-7-7-7-----------7-7-7-7-7-7-7-------------------------------------------| 
D|--7-7-7-7-7-7-7--5-5-5-5--7-7-7-7-7-7-7-------------------------------------------| 
A|--5-5-5-5-5-5-5--5-5-5-5--5-5-5-5-5-5-5-------------------------------------------| 
E|-----------------3-3-3-3----------------------------------------------------------| 
 
   Repeat Verse/Bridge/Chorus  
 
   Repeat Pre-Verse/Verse/Bridge/Chorus 
 
   Pre-Verse 
E|----------------------------------------------------------------------------------| 
B|--*-*-*-*-*-*-*-----------*-*-*-*-*-*-*-------------------------------------------| 
C|--7-7-7-7-7-7-7--*-*-*-*--7-7-7-7-7-7-7-------------------------------------------| 
D|--7-7-7-7-7-7-7--5-5-5-5--7-7-7-7-7-7-7-------------------------------------------| 
A|--5-5-5-5-5-5-5--5-5-5-5--5-5-5-5-5-5-5-------------------------------------------| 
E|-----------------3-3-3-3----------------------------------------------------------| 
 
   Verse                              Bridge 
E|----------------------------------|------------------|----------------------------| 
B|--*-*-*----------------*-*-*-*-*--|-------------(x2)-|----------------------------| 
C|--9-9-9--*-*-*--*-*-*--7-7-7-7-7--|--9-9--11-11------|--9-9--12-12--14-14---------| 
D|--9-9-9--7-7-7--5-5-5--7-7-7-7-7--|--9-9--11-11------|--9-9--12-12--14-14--5-5-5--| 
A|--7-7-7--7-7-7--5-5-5--5-5-5-5-5--|--7-7--9--9-------|--7-7--10-10--12-12--5-5-5--| 
E|---------5-5-5--3-3-3-------------|------------------|---------------------3-3-3--| 
 
   Chorus/Outro 
 
     E|---------------------14-14-14--14-14-15-14--14--|---------------------------------|| 
     B|------------------------------------------------|---------------------------------|| 
     C|--7-7-------------------------------------------|--12-9--7--12-14--7--------------|| 
  1. D|--7-7--5-5--7-7-7-7-----------------------------|--12-9--7--12-14--7--------------|| 
     A|--5-5--5-5--7-7-7-7-----------------------------|--10-7--5--10-12--5--------------|| 
     E|-------3-3--5-5-5-5-----------------------------|---------------------------------|| 
 
     E|------------------------------------------------|---------------------------------|| 
     B|------------------------------------------------|---------------------------------|| 
     C|--7-7----------------7-7-7-7-7-7-7-7------------|--12-9--7--12-14--7--------------|| 
  2. D|--7-7--5-5--7-7-7-7--7-7-7-7-7-7-7-7------------|--12-9--7--12-14--7--------------|| 
     A|--5-5--5-5--7-7-7-7--5-5-5-5-5-5-5-5------------|--10-7--5--10-12--5--------------|| 
     E|-------3-3--5-5-5-5-----------------------------|---------------------------------|| 
 

		  

See also:

tabs Simon & Garfunkel - Sounds of silence tabs R.E.M. - Everybody Hurts tabs Guns N' Roses - Knockin' On Heaven's Door tabs John Mayer - Belief tabs The Wonders - That Thing You Do tabs Cheap Trick - The Flame
e-chords

Other versions:

tabs Shelter - I Am Rock
auto scroll beats size up size down change color hide chords drawings
tab show chords e-chords YouTube Clip e-chords hide all tabs e-chords go to top tab

share