Shelter

Freewill

Shelter

tabs

save to print version add songbook text version e-mail correct tuner
chordsukulelecavacokeyboardtabbassdrumsharmonicaflute Guitar Pro
close

there isn't a video lesson for this song

chords

Freewill

	  		 
   Intro 
E|---------------------------------------------------------------------------| 
B|-----------------------------------------------5---5---5---5---5-----------| 
C|---------------------------------------------4---4---4---4---4-------------| 
D|--2-2-2-2-2--5-5-5-5-5--7-7-7-7-7--9-9-9-9-9-------------------------------| 
A|--2-2-2-2-2--5-5-5-5-5--7-7-7-7-7--9-9-9-9-9-------------------------(x2)--| 
E|--0-0-0-0-0--3-3-3-3-3--5-5-5-5-5--7-7-7-7-7-------------------------------| 
 
   Verse 
E|---------------------------------------------------------------------------| 
B|---------------------------------------------------------------------(x4)--| 
C|-------4-4--7-7-7-7-7-------4-4--7-----------------------------------------| 
D|--2-2--4-4--7-7-7-7-7--2-2--4-4--7---2-4-5-7-5-4-2-------------------------| 
A|--2-2--2-2--5-5-5-5-5--2-2--2-2--5---2-4-5-7-5-4-2-------------------------| 
E|--0-0------------------0-0-----------0-2-3-5-3-2-0-------------------------| 
 
E|---------------------------------------------------------------------------| 
B|---------------------------------------------------------------------(x2)--| 
C|-------7-7-7-7-------7-----------------------------------------------------| 
D|--2-2--7-7-7-7--2-2--7---2-4-5-7-5-4-2-------------------------------------| 
A|--2-2--5-5-5-5--2-2--5---2-4-5-7-5-4-2-------------------------------------| 
E|--0-0-----------0-0------0-2-3-5-3-2-0-------------------------------------| 
 
E|---------------------------------------------------------------------------| 
B|---------------------------------------------------------------------------| 
C|---------------------------------------------------------------------------| 
D|--5-5-5-5-5-5--4-4-4-4-4-4---5-5-5-5-5-5--4-4-4-4-4-4----------------------| 
A|--5-5-5-5-5-5--4-4-4-4-4-4---5-5-5-5-5-5--4-4-4-4-4-4----------------------| 
E|--3-3-3-3-3-3--2-2-2-2-2-2---3-3-3-3-3-3--2-2-2-2-2-2----------------------| 
 
   Chorus 
E|---------------------------------------------------------------------------| 
B|---------------------------------------------------------------------(x2)--| 
C|---------------------------------------------------------------------------| 
D|--9-9-9-9-9--7-7-7-7-7--5-5-5-5-5------------------------------------------| 
A|--9-9-9-9-9--7-7-7-7-7--5-5-5-5-5------------------------------------------| 
E|--7-7-7-7-7--5-5-5-5-5--3-3-3-3-3------------------------------------------| 
 
   Repeat Verse/Chorus 
 
   Solo 
E|---------------------------------------------------------------------------| 
B|----5---5---5---5---5---5--------------------------------------------------| 
C|--4---4---4---4---4---4-----9-9-9-9--7-7-7-7--6-6-6-6--4-4-4-4-------------| 
D|---------------------------------------------------------------------------| 
A|---------------------------------------------------------------------------| 
E|---------------------------------------------------------------------------| 
 
E|---------------------------------------------------------------------------| 
B|---------------------------------------------------------------------------| 
C|--9-9-9-9--12-12-12-12--14-14-14-14--16------------------------------------| 
D|---------------------------------------------------------------------------| 
A|---------------------------------------------------------------------------| 
E|---------------------------------------------------------------------------| 
 
   Outro 
E|---------------------------------------------------------------------------| 
B|---------------------------------------------------------------------(x3)--| 
C|---------------------------------------------------------------------------| 
D|--2-2--4-4--7-7-7-7-7--2-2--4-4--7---2-4-5-7-5-4-2-------------------------| 
A|--2-2--2-2--5-5-5-5-5--2-2--2-2--5---2-4-5-7-5-4-2-------------------------| 
E|--0-0------------------0-0-----------0-2-3-5-3-2-0-------------------------| 
 
E|----------------------------------------------|----------------------------|| 
B|----------------------------------------(x4)--|----------------------------|| 
C|-------7-7-7-7-------7------------------------|----------------------------|| 
D|--2-2--7-7-7-7--2-2--7---2-4-5-7-5-4-2--------|--2-------------------------|| 
A|--2-2--5-5-5-5--2-2--5---2-4-5-7-5-4-2--------|--2-------------------------|| 
E|--0-0-----------0-0------0-2-3-5-3-2-0--------|--0-------------------------|| 
 

		  

See also:

tabs Guns N' Roses - Welcome to The Jungle tabs Guns N' Roses - Knockin' On Heaven's Door tabs 3 Doors Down - When I'm gone tabs Guns N' Roses - Don't Cry tabs Cheap Trick - The Flame tabs Aerosmith - Dream On
e-chords

Other versions:

tabs Shelter - Freewill
auto scroll beats size up size down change color hide chords drawings
tab show chords e-chords YouTube Clip e-chords hide all tabs e-chords go to top tab

share