Shelter

Don't Walk Away

Shelter

tabs

save to print version add songbook text version e-mail correct tuner
chordsukulelecavacokeyboardtabbassdrumsharmonicaflute Guitar Pro
close

there isn't a video lesson for this song

chords

Don't Walk Away

	  		 
   Intro  
E|--------------------------------------------|------------------------------| 
B|--------------------------------------(x3)--|------------------------------| 
G|-----------7-7-7-7-----------5-5-5-5--------|---------7-7-7-7--------------| 
D|--5-5-5-5--7-7-7-7--7-7-7-7--5-5-5-5--------|--5-5-5--7-7-7-7--7-x-x-x-x---| 
A|--5-5-5-5--5-5-5-5--7-7-7-7--3-3-3-3--------|--5-5-5--5-5-5-5--7-x-x-x-x---| 
E|--3-3-3-3-----------5-5-5-5-----------------|--3-3-3-----------5-x-x-x-x---| 
 
   Verse 
E|--------------------------------------------|------------------------------| 
B|--------------------------------------(x )--|------------------------------| 
G|-----------7-7-7-7-----------5-5-5-5--------|------------------------------| 
D|--5-5-5-5--7-7-7-7--7-7-7-7--5-5-5-5--------|--7-7-7-7--4-4-4--2-2-2--0-0--| 
A|--5-5-5-5--5-5-5-5--7-7-7-7--3-3-3-3--------|--7-7-7-7---------------------| 
E|--3-3-3-3-----------5-5-5-5-----------------|--5-5-5-5---------------------| 
 
   Chorus 
E|---------------------------------------------------------------------------| 
B|---------------------------------------------------------------------------| 
G|-----------7-7-7-7-----------5-5-5-5------------7-7-7-7---------------7-7--| 
D|--5-5-5-5--7-7-7-7--7-7-7-7--5-5-5-5---5-5-5-5--7-7-7-7--7---5-5-5-5--7-7--| 
A|--5-5-5-5--5-5-5-5--7-7-7-7--3-3-3-3---5-5-5-5--5-5-5-5--7---5-5-5-5--5-5--| 
E|--3-3-3-3-----------5-5-5-5------------3-3-3-3-----------5---3-3-3-3-------| 
 
E|-----------------------------------------------------|---------------------| 
B|-----------------------------------------------------|---------------(x2)--| 
G|--7-7-----------5-5-5-5------------------------------|---------------------| 
D|--7-7--7-7-7-7--5-5-5-5--5-5-5--4-4-4--2-2-2--0-0-0--|---------------------| 
A|--5-5--7-7-7-7--3-3-3-3------------------------------|--2--3--3--5---------| 
E|-------5-5-5-5---------------------------------------|---------------------| 
 
   Repeat Verse/Chorus x2 
 
   End A ... 
 

		  

See also:

tabs Simon & Garfunkel - Sounds of silence tabs R.E.M. - Everybody Hurts tabs Guns N' Roses - Knockin' On Heaven's Door tabs John Mayer - Belief tabs The Wonders - That Thing You Do tabs Cheap Trick - The Flame
e-chords

Other versions:

tabs Shelter - Don't Walk Away tabs Miley Cyrus - Don't Walk Away
auto scroll beats size up size down change color hide chords drawings
tab show chords e-chords YouTube Clip e-chords hide all tabs e-chords go to top tab

share