Shelter

Crusing Somone You Love

Shelter

tabs

save to print version add songbook text version e-mail correct tuner
chordsukulelecavacokeyboardtabbassdrumsharmonicaflute Guitar Pro
close

there isn't a video lesson for this song

chords

Crusing Somone You Love

	  		   Intro 
E|-----------------------------------------------------------------------------| 
B|-----------------------------------------------------------------------------| 
G|-------7-7-7-------9-9-9--------7-7-7---------------------7-7-7-------9-9-9--| 
D|--9-9--7-7-7--7-7--9-9-9---9-9--7-7-7--7-7-7-7-7-7---9-9--7-7-7--7-7--9-9-9--| 
A|--9-9--5-5-5--7-7--7-7-7---9-9--5-5-5--7-7-7-7-7-7---9-9--5-5-5--7-7--7-7-7--| 
E|--7-7---------5-5----------7-7---------5-5-5-5-5-5---7-7---------5-5---------| 
 
E|-----------------------------------------------------------------------------| 
B|-----------------------------------------------------------------------------| 
G|-------7-7-7-------9-7--------7-7-7-------9-9-9--------7-7-7-----------------| 
D|--9-9--7-7-7--7-7--9-7---9-9--7-7-7--7-7--9-9-9---9-9--7-7-7--7-7------------| 
A|--9-9--5-5-5--7-7--7-5---9-9--5-5-5--7-7--7-7-7---9-9--5-5-5--7-7------------| 
E|--7-7---------5-5--------7-7---------5-5----------7-7---------5-5------------| 
 
   Verse	 			               Chorus 
E|      |-----------|      |-------------------------|--------------------------| 
B|      |-----------|      |-------------------------|--------------------------| 
G| bass |-----------| bass |---------7-7-7-----------|-------7-7-7-------9-9-9--| 
D| line |--7-7-7-7--| line |--9-9-9--7-7-7--7-7-7-7--|--9-9--7-7-7--7-7--9-9-9--| 
A|      |--7-7-7-7--|      |--9-9-9--5-5-5--7-7-7-7--|--9-9--5-5-5--7-7--7-7-7--| 
E|      |--5-5-5-5--|      |--7-7-7---------5-5-5-5--|--7-7---------5-5---------| 
 
E|-----------------------------------------------------------------------------| 
B|-----------------------------------------------------------------------------| 
G|-------7-7-7-------9-7-7--------7-7-7-------9-9-9--------7-7-7---------------| 
D|--9-9--7-7-7--7-7--9-7-7---9-9--7-7-7--7-7--9-9-9---9-9--7-7-7--7-7-7-7-7----| 
A|--9-9--5-5-5--7-7--7-5-5---9-9--5-5-5--7-7--7-7-7---9-9--5-5-5--7-7-7-7-7----| 
E|--7-7---------5-5----------7-7---------5-5----------7-7---------5-5-5-5-5----| 
 
E|-----------------------------------------------------------------------------| 
B|-----------------------------------------------------------------------------| 
G|----------------7-7------7-7-----7-----------------7-7---7-7-----------------| 
D|--5-4-5-4-5-4-------7-7------7-7---7--5-4-5-4-5-4------7-----7-7--7-8-8------| 
A|--5-4-5-4-5-4-------------------------5-4-5-4-5-4----------------------------| 
E|--3-2-3-2-3-2-------------------------3-2-3-2-3-2----------------------------| 
 
   Repeat Verse/Chorus 
 
E|--------------------------------|--------------------------------------------| 
B|--------------------------(x2)--|--------------------------------------------| 
G|-------7-7-7-------9-9-9--------|--------------------------------------------| 
D|--9-9--7-7-7--7-7--9-9-9--------|--/9-------/9--/9--/9--/9--/9---------------| 
A|--9-9--5-5-5--7-7--7-7-7--------|--------------------------------------------| 
E|--7-7---------5-5---------------|--------------------------------------------| 
 
   Outro 
E|---------------------------------------------------------|-------------------|| 
B|---------------------------------------------------(x2)--|-------------------|| 
G|-------7-7-7-------9-9-9--------7-7-7-------9-7-7--------|-------------------|| 
D|--9-9--7-7-7--7-7--9-9-9---9-9--7-7-7--7-7--9-7-7--------|--9----------------|| 
A|--9-9--5-5-5--7-7--7-7-7---9-9--5-5-5--7-7--7-5-5--------|--9----------------|| 
E|--7-7---------5-5----------7-7---------5-5---------------|--7----------------|| 
 

		  

See also:

tabs Simon & Garfunkel - Sounds of silence tabs R.E.M. - Everybody Hurts tabs Guns N' Roses - Knockin' On Heaven's Door tabs John Mayer - Belief tabs The Wonders - That Thing You Do tabs Cheap Trick - The Flame
e-chords

Other versions:

tabs Shelter - Crusing Somone You Love
auto scroll beats size up size down change color hide chords drawings
tab show chords e-chords YouTube Clip e-chords hide all tabs e-chords go to top tab

share