Shelter

Civilizied Man

Shelter

tabs

save to print version add songbook text version e-mail correct tuner
chordsukulelecavacokeyboardtabbassdrumsharmonicaflute Guitar Pro
close

there isn't a video lesson for this song

chords

Civilizied Man

	  		   Intro Guitar/Bass 
E|----------------------------------|----------------------------------------| 
B|----------------------------(x4)--|----------------------------------(x4)--| 
C|----------------------------------|--4-6-6-6-6-4-2-------------------------| 
D|----------------------------------|--4-6-6-6-6-4-2--4-4-4-2-2--------------| 
A|--2-4-4-4-4-2-0-------------------|--2-4-4-4-4-2-0--4-4-4-2-2--------------| 
E|-----------------2-2-2-0-0--------|-----------------2-2-2-0-0--------------| 
 
   Verse 
E|-----------------------------------|---------------------------------------| 
B|--*-*-*-*-*-*-*--------------(x3)--|---------------------------------------| 
C|--4-6-6-6-6-4-2--*-*-*-*-*---------|--4-6-6-6-6-4-2--9-9--11-11------------| 
D|--4-6-6-6-6-4-2--4-4-4-2-2---------|--4-6-6-6-6-4-2--9-9--11-11------------| 
A|--2-4-4-4-4-2-0--4-4-4-2-2---------|--2-4-4-4-4-2-0--7-7--9--9-------------| 
E|-----------------2-2-2-0-0---------|---------------------------------------| 
 
  
E|-----------------------------------|---------------------------------------| 
B|--*-*-*-*-*-*-*--------------(x3)--|---------------------------------------| 
C|--4-6-6-6-6-4-2--*-*-*-*-*---------|--4-6-6-6-6-4-2------------------------| 
D|--4-6-6-6-6-4-2--4-4-4-2-2---------|--4-6-6-6-6-4-2------------------------| 
A|--2-4-4-4-4-2-0--4-4-4-2-2---------|--2-4-4-4-4-2-0------------------------| 
E|-----------------2-2-2-0-0---------|---------------------------------------| 
 
   Chorus 
E|---------------------------------------------------------------------------| 
B|---------------------------------------------------------------------(x2)--| 
C|--6-6-6-6-6--4-4-4-4-------------------------------------------------------| 
D|--6-6-6-6-6--4-4-4-4--2-2-2-2--4-4-4-4-4-4-4-------------------------------| 
A|--4-4-4-4-4--2-2-2-2--2-2-2-2--4-4-4-4-4-4-4-------------------------------| 
E|----------------------0-0-0-0--2-2-2-2-2-2-2-------------------------------| 
 
   Repeat Verse/Chorus 
 
   Break 
E|----------------------------------------|----------------------------------| 
B|----------------------------------(x8)--|----------------------------------| 
C|--4--6-6--4--6-6--4--6-6--4--6-6--------|--4-6--6--------------------------| 
D|--4--6-6--4--6-6--4--6-6--4--6-6--------|----------------------------------| 
A|--2--4-4--2--4-4--2--4-4--2--4-4--------|--2-4--4--------------------------| 
E|----------------------------------------|----------------------------------| 
 
   Verse 
E|---------------------------------------------------------------------------| 
B|---------------------------------------------------------------------(x4)--| 
C|--4-6-6-6-6-4-2------------------------------------------------------------| 
D|--4-6-6-6-6-4-2--4-4-4-2-2-------------------------------------------------| 
A|--2-4-4-4-4-2-0--4-4-4-2-2-------------------------------------------------| 
E|-----------------2-2-2-0-0-------------------------------------------------| 
 
   Chorus/Outro   
E|---------------------------------------------------|-----------------------|| 
B|---------------------------------------------(x2)--|-----------------------|| 
C|-6-6-6-6-6--4-4-4-4--------------------------------|--4-6--6-6-------------|| 
D|-6-6-6-6-6--4-4-4-4--2-2-2-2--4-4-4-4-4-4-4--------|--4-6--6-6-------------|| 
A|-4-4-4-4-4--2-2-2-2--2-2-2-2--4-4-4-4-4-4-4--------|--2/4--4-4-------------|| 
E|---------------------0-0-0-0--2-2-2-2-2-2-2--------|-----------------------|| 
 

		  

See also:

tabs Guns N' Roses - Welcome to The Jungle tabs Guns N' Roses - Knockin' On Heaven's Door tabs 3 Doors Down - When I'm gone tabs Guns N' Roses - Don't Cry tabs Cheap Trick - The Flame tabs Aerosmith - Dream On
e-chords

Other versions:

tabs Shelter - Civilizied Man
auto scroll beats size up size down change color hide chords drawings
tab show chords e-chords YouTube Clip e-chords hide all tabs e-chords go to top tab

share