Shannon Wright

Absentee

Shannon Wright

tabs

by  EDSOOLIVEIRA

save to print version add songbook text version e-mail correct tuner
chordsukulelecavacokeyboardtabbassdrumsharmonicaflute Guitar Pro
close

there isn't a video lesson for this song

chords

Absentee

	  		
· 
main riff 

e---------------------------------------------------| 
B---------------------------------------------------| 
G--------0-----------0-----------0-----------0------| 
D----7-7---7-7---7-7---7-7---7-7---7-7---7-7---0-0--| 
G--5-----------5-----------5-----------5------------| 
D---------------------------------------------------| 

e---------------------------------------------------| 
B---------------------------------------------------| 
G--------0-----------0-----------0-----------0------| 
D----9-9---9-9---9-9---9-9---9-9---9-9---9-9---0-0--| 
G--7-----------7-----------7-----------7------------| 
D---------------------------------------------------| 

e-----------------------------------------------------| 
B-----------------------------------------------------| 
G--------0-----------0-----------0-----------0--------| 
D----5-5---5-5---5-5---5-5---5-5---5-5---5-5---5\4-0--| 
G--3-----------3-----------3-----------3--------------| 
D-----------------------------------------------------| 

e---------------------------------------------------| 
B---------------------------------------------------| 
G--------0-----------0-----------0-----------0------| 
D----4-4---4-4---4-4---4-4---4-4---4-4---4-4---0-0--| 
G--2-----------2-----------2-----------2------------| 
D---------------------------------------------------| 


· 
Chorus 

e---------------------------------------------------| 
B---------------------------------------------------| 
G--------0-----------0-----------0-----------0------| 
D----3-3---3-3---3-3---3-3---3-3---3-3---3-3---0-0--| 
G--1-----------1-----------1-----------1------------| 
D---------------------------------------------------| 

e---------------------------------------------------| 
B---------------------------------------------------| 
G--------0-----------0-----------0-----------0------| 
D----4-4---4-4---5-5---5-5---2-2---2-2---2-2---0-0--| 
G--4-----------3-----------0-----------0------------| 
D---------------------------------------------------| 

e---------------------------------------------------| 
B---------------------------------------------------| 
G--------0-----------0-----------0-----------0------| 
D----3-3---3-3---3-3---3-3---3-3---3-3---3-3---0-0--| 
G--1-----------1-----------1-----------1------------| 
D---------------------------------------------------| 


ending of 1st Chorus 

e-----------------------------| 
B-----------------------------| 
G--------0-----------0--------| 
D----4-4---4-4---5-5---5-5----| 
G--4-----------3-----------0--| 
D-----------------------------| 


ending of 2nd Chorus 

e--------------------------------------------------------------------------------| 
B--------------------------------------------------------------------------------| 
G--------0-----------0-------------0-------------0-----------------0-------------| 
D----4-4---4-4---5-5---5/8-8---8-8---8\7-7---7-7---7/10-10---10-10---10/12-12----| 
G--4-----------3-------------6-------------7---------------8------------------0--| 
D--------------------------------------------------------------------------------| 


· 
outro (x2) 

e-------------------------------------------| 
B-------------------------------------------| 
G-----------0-------------------0-----------| 
D-----12-12---12/13-13----13-13---13\10-10--| 
G--12------------------11-------------------| 
D-------------------------------------------| 

e----------------------------------------| 
B----------------------------------------| 
G-----------0------------------0---------| 
D-----10-10---10/11-11---11-11---11\8-8--| 
G--10------------------9-----------------| 
D----------------------------------------| 

e-------------------------------| 
B-------------------------------| 
G--------0-------------0--------| 
D----8-8---8/9-9---9-9---9\5-5--| 
G--8-------------7--------------| 
D-------------------------------| 

e-------------------------------| 
B-------------------------------| 
G--------0-----------0----------| 
D----5-5---5-5---5-5---5/12-12--| 
G--0*----------0----------------| 
D-------------------------------| 

2nd time stopping at * 
		  

See also:

tabs Ira! - Envelheço na Cidade tabs Deep Purple - Smoke On Water tabs Ira! - Inundação de Amor tabs Deep Purple - Stormbringer tabs Deep Purple - Money Talks tabs Ira! - A vida por um fio
e-chords

Other versions:

tabs Shannon Wright - Absentee
auto scroll beats size up size down change color hide chords drawings
tab show chords e-chords YouTube Clip e-chords hide all tabs e-chords go to top tab

share