Shakey Graves

Family And Genus (acoustic)

Shakey Graves

tabs

by  EDSOOLIVEIRA

save to print version add songbook text version e-mail correct tuner
chordsukulelecavacokeyboardtabbassdrumsharmonicaflute Guitar Pro
close

there isn't a video lesson for this song

chords

Family And Genus (acoustic)

	  		
Intro 

   G                                     Em7 
e|-----------3---------------3---------------3---------------3-------| 
B|---------------0---------------0---------------0--------------0----| 
G|---0---0-----------0---0-----------0---0-----------0---0-----------| 
D|-------------------------------------------------------------------| 
A|-------------------------------------------------------------------| 
E|-3---3---3---3---3---3---3---3---0---0---0---0---0---0---0---0-----| 

^ Repeat a few items 

e|--------------------------------------------| 
B|--------------------------------------------| 
G|-----------------0---0---0---0---0---0---0--| 
D|-----2------4-------------------------------| 
A|--3------5----------------------------------| 
E|---------------3---3---3---3---3---3---3---3| 


Verse 

e|---------------------------------------------------------------------------| 
B|---------------------------------------------------------------------------| 
G|-------2---4---2---0-------2b--0-------------------------------------------| 
D|---0-------------------2---------------------------------------------------| 
A|---------------------------------------------------------------------------| 
E|-3---3---3---3---3---0---0-------------------------------------------------| 

And repeat! Rhythm should be syncopated until the open Em transition 


    Drop what I'm doing and sit beside you 
e|--------------------------------------------| 
B|--1----------------------3------------------| 
G|--0----------------------0------------------| 
D|--------------------------------------------| 
A|--3----------------------5------------------| 
E|--------------------------------------------| 



************************************ 
| b  Bend 
************************************ 
		  

Full key step upFull key step up
Half key step upHalf key step up
Half key step downHalf key step down
Full key step downFull key step down
hide glossary

See also:

tabs Prototype - The Way It Ends tabs Idir - A Vava Inouva tabs Misc Television - Brooklyn Nine-nine Background Guitar Jakes Proposal tabs Misc Computer Games - Chrono Trigger - Corridors Of Time tabs Misc Television - Family Guy - Iraq Lobster tabs Macano - Te Amo
e-chords

Other versions:

tabs Shakey Graves - Family And Genus (acoustic)
auto scroll beats size up size down change color hide chords drawings
tab show chords e-chords YouTube Clip e-chords hide all tabs e-chords go to top tab

share