Sevendust

Unraveling

Sevendust

tabs

by  FERNSANTANA

save to print version add songbook text version e-mail correct tuner
chordsukulelecavacokeyboardtabbassdrumsharmonicaflute Guitar Pro
close

there isn't a video lesson for this song

chords

Unraveling

	  		
Lead guitar 
C|---------------------------------------------------------------------------------| 
G|---------------------------------------------------------------------------------| 
F|----12--12--12--14----14b15r14-12------12---12---12---14----14b15r14-12----------| 
C|---------------------------------------------------------------------------------| 
G|---------------------------------------------------------------------------------| 
C|---------------------------------------------------------------------------------| 

C|---------------------------------------------------------------------------------| 
G|---------------------------------------------------------------------------------| 
F|-------17----17----17-------------------------------17--17--17--19~---17----19---| 
C|-------------------------20-------19-------12------------------------------------| 
G|---------------------------------------------------------------------------------| 
C|---------------------------------------------------------------------------------| 

Lead Guitar 
C|--0--0--0--0--0--0--0--0-0-0-0-0-0-0-0-0--0--0--0--0--0--0--0--0-0-0-0-0-0-0-0-0-| 
G|--x--x--x--x--x--x--x--x-x-x-x-x-x-x-x-x--x--x--x--x--x--x--x--x-x-x-x-x-x-x-x-x-| 
F|-10-12-12-12-10-12-12-10-7-7-7-5-7-5-7-7-10-12-12-12-10-12-12-10-7-5-7-8-7-5-7-7-| 
C|---------------------------------------------------------------------------------| 
G|---------------------------------------------------------------------------------| 
C|---------------------------------------------------------------------------------| 

Verse 1 
Guitar 1 
C|----------------------------------------------------| 
G|----------------------------------------------------| 
F|------0----0-------0----0-------0----0-------0----0-| 
C|----7----7-------7----7-------7----7-------7----7---| 
G|----------------------------------------------------| 
C|-5------------5------------5------------5-----------| 

C|--------------------------------------------------------------| 
G|--------------------------------------------------------------| 
F|-------0-----0--------0-----0---------0-----0--------0-----0--| 
C|----10----10-------10----10--------12----12-------10----10----| 
G|--------------------------------------------------------------| 
C|-8--------------8--------------10--------------8--------------| 

C|------------------------0-------------------------0-| 
G|------------------------0-------------------------0-| 
F|------0----0-------0------------0----0-------0------| 
C|----7----7-------8----8-------7----7-------8----8---| 
G|----------------------------------------------------| 
C|-5------------5------------5------------5-----------| 

C|------------------------------------------------------------| 
G|------------------------------------------------------------| 
F|-------0-----0--------0-----0---------0-----0-------0----0--| 
C|----10----10-------10----10--------12----12-------3----3----| 
G|------------------------------------------------------------| 
C|-8--------------8--------------10--------------3------------| 
Guitar 2 
C|----------------------------------------------------| 
G|-5*-------------------------------------------------| 
F|--------------------------------------------------5*| 
C|----------------------------------------------------| 
G|----------------------------------------------------| 
C|----------------------------------------------------| 

C|----------------------------------------------------| 
G|-5*-------------------------------------------------| 
F|------------------------------------------5*--------| 
C|----------------------------------------------------| 
G|----------------------------------------------------| 
C|----------------------------------------------------| 

C|----------------------------------------------------| 
G|-5*-------------------------------------------------| 
F|--------------------------------------------------5*| 
C|----------------------------------------------------| 
G|----------------------------------------------------| 
C|----------------------------------------------------| 

C|-----------------------------------5*---------------| 
G|-5*---------------------5*--------------------------| 
F|---------------------5*-----------------------------| 
C|----------------------------------------------------| 
G|----------------------------------------------------| 
C|----------------------------------------------------| 

Pre Chorus 
C|------------------------------------------------------------------------------------------------| 
G|------------------------------------------------------------------------------------------------| 
F|-----15-------15---------------15-------15------------------7-7-7-7-7-7-7-7-7-7-7-7-7-7-7-7-| 
C|-1.--13---1.--13---1-3-0---1.--13---1.--13---1-3-3---0------x-x-x-x-x-x-x-x-x-x-x-x-x-x-x-x-| 
G|-1.--13---1.--13---1-3-0---1.--13---1.--13---1-3-3---0------5-5-5-5-5-5-5-5-5-5-5-5-5-5-5-5-| 
C|-1.--------1.--------1-3-0---1.--------1.--------1-3-3---0--------------------------------------| 

Lead guitar 
C|---------------------------------------------------------------------------------| 
G|---------------------------------------------------------------------------------| 
F|----12--12--12--14----14b15r14-12------12---12---12---------14b15r14-12----------| 
C|------------------------------------------------------12-------------^^(14th fret 2nd time 
G|---------------------------------------------------------------------------------| through) 
C|---------------------------------------------------------------------------------| 

C|---------------------------------------------------------------------------------| 
G|---------------------------------------------------------------------------------| 
F|-------17----17----17-------------------------------17--17--17--19~---17----19~--| 
C|-------------------------20-------19-------12------------------------------------| 
G|---------------------------------------------------------------------------------| 
C|---------------------------------------------------------------------------------| 

Lead Guitar 
C|--0--0--0--0--0--0--0--0-0-0-0-0-0-0-0-0--0--0--0--0--0--0--0--0-0-0-0-0-0-0-----| 
G|--x--x--x--x--x--x--x--x-x-x-x-x-x-x-x-x--x--x--x--x--x--x--x--x-x-x-x-x-x-x-----| 
F|-10-12-12-12-10-12-12-10-7-7-7-5-7-5-7-7-10-12-12-12-10-12-12-10-7-7-7-8-7-5-----| 
C|---------------------------------------------------------------------------------| 
G|---------------------------------------------------------------------------------| 
C|---------------------------------------------------------------------------------| 
Verse 2 
Guitar 1 
C|----------------------------------------------------| 
G|----------------------------------------------------| 
F|------0----0-------0----0-------0----0-------0----0-| 
C|----7----7-------7----7-------7----7-------7----7---| 
G|----------------------------------------------------| 
C|-5------------5------------5------------5-----------| 

C|--------------------------------------------------------------| 
G|--------------------------------------------------------------| 
F|-------0-----0--------0-----0---------0-----0--------0-----0--| 
C|----10----10-------10----10--------12----12-------10----10----| 
G|--------------------------------------------------------------| 
C|-8--------------8--------------10--------------8--------------| 

C|------------------------0----------------------------| 
G|------------------------0----------------------------| 
F|------0----0-------0------------0----0-------0----0--| 
C|----7----7-------8----8-------7----7-------3----3----| 
G|-----------------------------------------------------| 
C|-5------------5------------5------------3------------| 

Guitar 2 
C|----------------------------------------------------| 
G|-5*-------------------------------------------------| 
F|--------------------------------------------------5*| 
C|----------------------------------------------------| 
G|----------------------------------------------------| 
C|----------------------------------------------------| 

C|----------------------------------------------------| 
G|-5*-------------------------------------------------| 
F|------------------------------------------5*--------| 
C|----------------------------------------------------| 
G|----------------------------------------------------| 
C|----------------------------------------------------| 

C|-----------------------------------------------------| 
G|-5*--------------------------------------------------| 
F|-----------------------------------------------------| 
C|-----------------------------------------------------| 
G|-----------------------------------------------------| 
C|-----------------------------------------------------| 

Lead guitar 
C|---------------------------------------------------------------------------------| 
G|---------------------------------------------------------------------------------| 
F|----12--12--12--14----14b15r14-12------12---12---12---------14b15r14-12----------| 
C|------------------------------------------------------12-------------^^----------| 
G|--------------------------------------------------------------------(14th fret 2nd time through) 
C|---------------------------------------------------------------------------------| 

C|---------------------------------------------------------------------------------| 
G|---------------------------------------------------------------------------------| 
F|-------17----17----17-------------------------------17--17--17--19~---17----19~--| 
C|-------------------------20-------19-------12------------------------------------| 
G|---------------------------------------------------------------------------------| 
C|---------------------------------------------------------------------------------| 

Rhythm Guitar 
C|-----------------------------------------------------------------| 
G|-----------------------------------------------------------------| 
F|-5-5-5-5-5-5-5-5-5-5-5-5-5-5-5-5-7-7-7-7-7-7-7-7-7-7-7-7-7-7-7-7-| 
C|-5-5-5-5-5-5-5-5-5-5-5-5-5-5-5-5-7-7-7-7-7-7-7-7-0-0-0-0-0-0-0-0-| 
G|-3-3-3-3-3-3-3-3-3-3-3-3-3-3-3-3-5-5-5-5-5-5-5-5-0-0-0-0-0-0-0-0-| 
C|-------------------------------------------------0-0-0-0-0-0-0-0-| 

Lead Guitar 
C|-----------------------------------------------------------------| 
G|--------------------------------15~-------------17~--------------| 
F|-19b20r19-------15------17---------------------------------------| 
C|-----------------------------------------------------------------| 
G|-----------------------------------------------------------------| 
C|-----------------------------------------------------------------| 

Bridge 
Lead Guitar 
C|---------------------0-------------------------------0-----------| 
G|-----------------------------------------------------------------| 
F|-17b18~----------------------------------------------------------| 
C|-----------------5/7---7-7/8-7---7-----7-----7---7/8---8-8/10-8--| 
G|---------------------------------5-----5-----5-------------------| 
C|---------------------------------5-----5-----5-------------------| 

C|--------------------0--------------------------------------------------| 
G|-----------------------------------------------------------------------| 
F|-----------------------------------------------------------------------| 
C|-10---10---10--10/12-12-13-12-10-10---10---10-----15-15-15-15-12-10-12-| 
G|--8----8----8--------------------10---10---10--------------------------| 
C|--8----8----8--------------------10---10---10--------------------------| 

Lead Guitar 
C|---------------------0-------------------------------0-----------| 
G|-----------------------------------------------------------------| 
F|-----------------------------------------------------------------| 
C|-1-----1-----1---5/7---7-7/8-7---7-----7-----7---7/8---8-8/10-8--| 
G|-1-----1-----1-------------------5-----5-----5-------------------| 
C|-1-----1-----1-------------------5-----5-----5-------------------| 

C|-----------------------------------------------------------------| 
G|-----------------------------------------------------------------| 
F|-----------------7-----------7---8-----7-----8--11----12----14---| 
C|-10----8----10--------10-----------------------------------------| 
G|-----------------------------------------------------------------| 
C|-----------------------------------------------------------------| 

Rhythm Gitar 
C|-0-------0-------0-------0-------| 
G|-0-------0-------0-------0-------| 
F|-0-------0-------0-------0-------| 
C|-5-------8------10------13-------| 
G|-5-------8------10------13-------| 
C|-5-------8------10------13-------| 

Ending 

Lead Guitar 
C|------------------------------------------------------------------------------------------------| 
G|------------------------------------------------------------------------------------------------| 
F|-14-14-14-14-14-14-14-14-15-15-15-15-15-15-15-15-17-17-17-17-17-17-17-17-17-17-17-17-17-15-15-14| 
C|------------------------------------------------------------------------------------------------| 
G|------------------------------------------------------------------------------------------------| 
C|------------------------------------------------------------------------------------------------| 

C|------------------------------------------------------------------------------------------------| 
G|------------------------------------------------------------------------------------------------| 
F|15-15-15-15-15-15-15-15-14-14-14-14-14-14-14-14-12----------------------------------------------| 
C|------------------------------------------------------------------------------------------------| 
G|------------------------------------------------------------------------------------------------| 
C|------------------------------------------------------------------------------------------------| 
		  

See also:

tabs Slipknot - Duality(ver 2) tabs Slipknot - Surfacing tabs Rainbow - Long Live Rock N' Roll tabs Dream Theater - As I Am tabs Pantera - Hollow tabs Slipknot - The Blister Exists
e-chords

Other versions:

tabs Sevendust - Unraveling
auto scroll beats size up size down change color hide chords drawings
tab show chords e-chords YouTube Clip e-chords hide all tabs e-chords go to top tab

share