Sevendust

Nobody Wants It

Sevendust

tabs

by  JOV-CORREA

save to print version add songbook text version e-mail correct tuner
chordsukulelecavacokeyboardtabbassdrumsharmonicaflute Guitar Pro
close

there isn't a video lesson for this song

chords

Nobody Wants It

	  		Sevendust: Nobody Wants It 

Transcribed by: mysticguitar77 

YouTube Username: MysticGuitar77 

Date last modified: July 17  2013 

Tuning: Altered Drop B (B F# B E F# B) 

Tuning note: This song you can just play in regular Drop B (B F# B E G# C#) 
             since the 1st and 2nd strings aren't used (at least in the way 
             I tab it)  however  to keep it consistent with how the other 
             songs off this album are tuned  the notation will read with the 
             altered tuning. Again  you can just tune to regular Drop B if 
             you wish  it doesn't matter for this song. 

Riff 1 
 B|--------------------------| 
F#|--------------------------| 
 E|-------5b-------5b--------| 
 B|-0-1-0-x--0-1-0-x--0-11-0-| 
F#|-0-1-0-3b-0-1-0-3b-0-11-0-| 
 B|-0-1-0----0-1-0----0-11-0-| 
      * *    * * *    * ** * 

Play Riff 1 x4 

Riff 2   "Straight through and time is ticking..." 
 B|-------------------------------| 
F#|-------------------------------| 
 E|-10101010-10101010-9999-9999---| 
 B|-x-x-x-x--x-x-x-x--xxxx-xxxx---|   x3 
F#|-8-8-8-8--8-8-8-8--8888-8888---| 
 B|-----------------------------0-| 

 B|-----------------------------------------------------------------| 
F#|-----------------------------------------------------------------| 
 E|-10101010---12121212---14141414---17171717---1717---17171717-----| 
 B|-x-x-x-x----x-x-x-x----x-x-x-x----x-x-x-x----x-x----x-x-x-x--\\\-| 
F#|-8-8-8-8----10101010---12121212---15151515---1515---15151515-\\\-| 
 B|----------0----------0----------0----------0------0----------\\\-| 

Play Riff 1 x2   "Dead  wake..." 

Fill 1   "...nobody wants to hear the truth!" 
 B|-------| 
F#|-------| 
 E|-------| 
 B|-0-1-0-| 
F#|-0-1-0-| 
 B|-0-1-0-| 
    * * * 

Riff 3   "Nobody wants it..." 
 B|----------------------| 
F#|----------------------| 
 E|----------------------| 
 B|----------------------|   x7 
F#|-0--0-0-0--0-0----0-0-| 
 B|-0--0-0-0--0-0-5*-0-0-| 
              * *    * * 

         "One minute left in hell..." 
 B|-------------------| 
F#|-------------------| 
 E|-------------------| 
 B|---------------\\\-| 
F#|-0--0-0-0--0-0-\\\-| 
 B|-0--0-0-0--0-0-\\\-| 

         "And everyone's running scared..." 
 B|------------------------------------------------------------------------| 
F#|------------------------------------------------------------------------| 
 E|------------------------------------------------------------------------| 
 B|-8-8-8-8-8-8-8-8-8/10-10-10-10-10-10-10-5-5-5-5-5-5-5-5-5-5-5-5-5-5-5-5-| 
F#|-8-8-8-8-8-8-8-8-8/10-10-10-10-10-10-10-5-5-5-5-5-5-5-5-5-5-5-5-5-5-5-5-| 
 B|-8-8-8-8-8-8-8-8-8/10-10-10-10-10-10-10-5-5-5-5-5-5-5-5-5-5-5-5-5-5-5-5-| 

         "Nobody wants it..." 
 B|----------------------| 
F#|----------------------| 
 E|----------------------| 
 B|----------------------|   x3 
F#|-0--0-0-0--0-0----0-0-| 
 B|-0--0-0-0--0-0-5*-0-0-| 
              * *    * * 

         "Nobody wants the pain but you..." 
 B|-----------------| 
F#|-----------------| 
 E|-8\7---7\5---5/7-| 
 B|-x-x---x-x---x-x-| 
F#|-6\5-0-5\3-0-3/5-| 
 B|-----0-----0-----| 
        *     * 

Play Riff 1 x2 
Play Riff 2 x1   "Straight down now pick up the pieces..." 
Play Riff 1 x2   "Dead  wake..." (2nd time through is cut short) 
Play Riff 3 x1   "Nobody wants it..." 

Riff 4 
 B|------------------------------------| 
F#|------------------------------------| 
 E|------------------------------------| 
 B|------------------------------------| 
F#|------------------------------------| 
 B|-1b-1-2--1b-1-2--1b-1-2--1b-1-2-\\\-| 

Play Riff 4 x3 (last time through play without the slide at the end) 

         "And everyone's running scared..." 
 B|------------------------------------------------------------------------| 
F#|------------------------------------------------------------------------| 
 E|------------------------------------------------------------------------| 
 B|-8-8-8-8-8-8-8-8-8/10-10-10-10-10-10-10-5-5-5-5-5-5-5-5-5-5-5-5-5-5-5-5-| 
F#|-8-8-8-8-8-8-8-8-8/10-10-10-10-10-10-10-5-5-5-5-5-5-5-5-5-5-5-5-5-5-5-5-| 
 B|-8-8-8-8-8-8-8-8-8/10-10-10-10-10-10-10-5-5-5-5-5-5-5-5-5-5-5-5-5-5-5-5-| 

Play above x2 

         "Nobody wants it..." 
 B|----------------------| 
F#|----------------------| 
 E|----------------------| 
 B|----------------------|   x3 
F#|-0--0-0-0--0-0----0-0-| 
 B|-0--0-0-0--0-0-5*-0-0-| 
              * *    * * 

         "Nobody wants the pain but you..." 
 B|-----------------| 
F#|-----------------| 
 E|-8\7---7\5---5/7-| 
 B|-x-x---x-x---x-x-| 
F#|-6\5-0-5\3-0-3/5-| 
 B|-----0-----0-----| 
        *     * 

Play 2 parts above collectively x2 

Riff 5 
 B|-------| 
F#|-------| 
 E|-------| 
 B|-0-1-0-| 
F#|-0-1-0-| 
 B|-0-1-0-| 

Play Riff 5 x4 

Riff 6 
 B|--------------------------------------------------| 
F#|--------------------------------------------------| 
 E|--------------------------------------------------| 
 B|--------------------------------------------0-1-0-| 
F#|--------x-x--------x-x--------x-x-----------0-1-0-| 
 B|-0-1b-0-x-x-0-1b-0-x-x-0-1b-0-x-x-0-1b-0----0-1-0-| 
                                                 * 

Enjoy!! 
		  

Full key step upFull key step up
Half key step upHalf key step up
Half key step downHalf key step down
Full key step downFull key step down
hide glossary

See also:

tabs Slipknot - Duality(ver 2) tabs Slipknot - Surfacing tabs Rainbow - Long Live Rock N' Roll tabs Dream Theater - As I Am tabs Pantera - Hollow tabs Slipknot - The Blister Exists
e-chords

Other versions:

tabs Sevendust - Nobody Wants It
auto scroll beats size up size down change color hide chords drawings
tab show chords e-chords YouTube Clip e-chords hide all tabs e-chords go to top tab

share