Sevendust

Here And Now

Sevendust

tabs

by  BOMBAXXX

save to print version add songbook text version e-mail correct tuner
chordsukulelecavacokeyboardtabbassdrumsharmonicaflute Guitar Pro
close

there isn't a video lesson for this song

chords

Here And Now

	  		

Tuning: Altered Drop A# (A#,F,A#,D#,F,A#) 

Riff 1 
A#|--------------------------------------------------------| 
 F|--------------------------------------------------------| 
D#|-----------10----10------------------10----10------12---| 
A#|-------14-----14-----------------14-----14-----------12-| 
 F|--------------------12b--10-------------------12b-------| 
A#|-0-0------------------------0-0-------------------------| 

Play Riff 1 x2 

Fill 1   "All torn up and nobody knew..." 
A#|---------| 
 F|---------| 
D#|---------| 
A#|---------| 
 F|---------| 
A#|-0-0-0-0-| 
    * * * * 

Riff 2   "Forgive me for the wrong I've done..." 
A#|-------------------------------------------------------------------| 
 F|-------------------------------------------------------------------| 
D#|-------------------------------------------------------------------| 
A#|-------------------------------------------------------------------| 
 F|---------------------------4-4-4-4-4-4-----------------------------| 
A#|-0-0-0-0-0-0-0-3-3-3-3-3-3-------------4-4-4-4-4-4-3-3-3-3-3-3-3-3-| 
                                                       
Fill 2   "But no one here is safe now..." 
A#|------------------------| 
 F|------------------------| 
D#|------------------------| 
A#|-0-0------5-5-------2-2-| 
 F|-0-0------3-3-------4-4-| 
A#|-0-0------3-3-----------| 

Riff 3   "So far down, can you tell me if I'm counted out..." 
A#|-----------------------------------------------------------------| 
 F|-----------------------------------------------------------------| 
D#|-----------14-14-14-14-14-14-------------------14-14-14-14-14-14-| 
A#|-0-0--0-0--x--x--x--x--x--x----------0-0--0-0--x--x--x--x--x--x--| 
 F|-0-0--0-0--13-13-13-13-13-13-0-0-0-0-0-0--0-0--13-13-13-13-13-13-| 
A#|-0-0--0-0--------------------0-0-0-0-0-0--0-0--------------------| 
                                * * * * 

A#|---------------------------------------------------------| 
 F|---------------------------------------------------------| 
D#|---------------------------------------------------------| 
A#|---------10-10-10-10-10-10-10-10-10-10-10-10-10-10-10-10-| 
 F|-0-0-0-0-8--8--8--8--8--8--8--8--8--8--8--8--8--8--8--8--| 
A#|-0-0-0-0-8--8--8--8--8--8--8--8--8--8--8--8--8--8--8--8--| 
    * * * * 

A#|-----------------------------------------| 
 F|-----------------------------------------| 
D#|-----------------------------------------| 
A#|-7-7-7-7-7-7-7-7-7-7-7-7-7\5-5-5-5-5-5-5-| 
 F|-3-3-3-3-3-3-3-3-3-3-3-3-3-3-3-3-3-3-3-3-| 
A#|-3-3-3-3-3-3-3-3-3-3-3-3-3-3-3-3-3-3-3-3-| 

Play Riff 3 x2   "I'm here and now..." 
Play Riff 1 x1 

Riff 4   "Waking up to nobody home..." 
A#|--------------------------------------------------------------------| 
 F|--------------------------------------------------------------------| 
D#|--------------------------------------------------------------------| 
A#|--------------------------------------------------------------------| 
 F|---------------------------4-4-4-4-4-4------------------------------| 
A#|-0-0-0-0-0-0-0-3-3-3-3-3-3-------------4-4-4-4-4-4-3-3-3-3-33333333-| 
    * * * * * * * * * * * * * * * * * * * * * * * * * * * * * ******** 

A#|-------------------------------------------------------------------| 
 F|-------------------------------------------------------------------| 
D#|-------------------------------------------------------------------| 
A#|-------------------------------------------------------------------| 
 F|---------------------------4-4-4-4-4-4-----------------------------| 
A#|-0-0-0-0-0-0-0-3-3-3-3-3-3-------------4-4-4-4-4-4-3-3-3-3-3-3-3-3-| 
    * * * * * * * * * * * * * * * * * * * * * * * * * * * 

A#|-------------------------------------------------------------------| 
 F|-------------------------------------------------------------------| 
D#|-------------------------------------------------------------------| 
A#|-------------------------------------------------------------------| 
 F|---------------------------4-4-4-4-4-4-----------------------------| 
A#|-0-0-0-0-0-0-0-3-3-3-3-3-3-------------4-4-4-4-4-4-3-3-3-3-3-3-3-3-| 

A#|-----------------------------------------------------| 
 F|-----------------------------------------------------| 
D#|-----------------------------------------------------| 
A#|-----------------------------------------------------| 
 F|---------------------------4-4-4-4-4-4---------------| 
A#|-0-0-0-0-0-0-0-3-3-3-3-3-3-------------4-4-4-4-4-4-3-| 

Play Riff 3 x2   "So far down, can you tell me if I'm counted out..." 

Fill 3   "I'm here and now..." 
A#|--------------| 
 F|--------------| 
D#|--------------| 
A#|-0~-----------| 
 F|-0~-----------| 
A#|-0~-----------| 

Riff 5 
A#|--------------------------------------| 
 F|--------------------------------------| 
D#|--------------------------------------| 
A#|--------------------------------------| 
 F|--------------------------------------| 
A#|-00000-0--00000-0----00000-0--00000-0-| 
    ***** *  ***** *    ***** *  ***** * 

Riff 6 
A#|------------------------------------------------------| 
 F|------------------------------------------------------| 
D#|------------------------------------------------------| 
A#|--------------8-------------------------8-------------| 
 F|-----------12------------------------12---------------| 
A#|-1-0--1-0-------0--4-4-4-4-1-0--1-0-------0--3*3*3*3*-| 

Play Riff 5 x1 
Play Riff 6 x2 

Riff 7 (clean)   "Send somebody, somebody soon..." 
A#|---7-0-----7-0--8\---7-0-----7-0--------| 
 F|----------------------------------5/7\4-| 
D#|-7-------5------------------------------| 
A#|-------------------8-------7------------| let all notes ring out 
 F|----------------------------------------| 
A#|----------------------------------------| 

Play Riff 3 x3   "So far down, can you tell me if I'm counted out..." 
                 (the ending of this riff gets extended and is played 
                  an additional time, listen to song for it) 
Play Riff 6 x2 

Ending: 
A#|------------------| 
 F|------------------| 
D#|------------------| 
A#|-0~---------------| 
 F|-0~---------------| 
A#|-0~---------------| 

Enjoy!! 
		  

See also:

tabs Slipknot - Duality(ver 2) tabs Slipknot - Surfacing tabs Rainbow - Long Live Rock N' Roll tabs Dream Theater - As I Am tabs Pantera - Hollow tabs Slipknot - The Blister Exists
e-chords

Other versions:

tabs Steve Vai - Here And Now tabs Sevendust - Here And Now
auto scroll beats size up size down change color hide chords drawings
tab show chords e-chords YouTube Clip e-chords hide all tabs e-chords go to top tab

share