Sevendust

Got A Feeling

Sevendust

tabs

by  JESSGOMES

save to print version add songbook text version e-mail correct tuner
chordsukulelecavacokeyboardtabbassdrumsharmonicaflute Guitar Pro
close

there isn't a video lesson for this song

chords

Got A Feeling

	  		

Riff 1 
C#|-0---0---0---0----0---0---0---0----| 
G#|-0---0---0---0----3---3---3---3----| 
F#|-2---2---2---2----2---2---2---2----| 
C#|-0---0---0---0----0---0---0---0----| 
G#|-0---0---0---0----0---0---0---0----| 
C#|-0---0---0---0--0----------------0-| 

Play Riff 1 x2 

Riff 2   "I've got a feeling coming on..." 
C#|-0---0---0---0------0---0---0---0------0---0---0---0------0---0---0---0-| 
G#|-0---0---0---0------3---3---3---3------0---0---0---0------2---2---2---2-| 
F#|-2---2---2---2------2---2---2---2------2---2---2---2------2---2---2---2-| 
C#|-0---0---0---0------0---0---0---0------3---3---3---3------0---0---0---0-| 
G#|-0---0---0---0--0-0-0---0---0---0--0-0----------------0-0---------------| 
C#|-0---0---0---0--0-0----------------0-0----------------0-0---------------| 

Play Riff 2 x2   "See a madman on the wall..." 

Fill 1   (let all notes ring out) 
C#|--------------------------| 
G#|-----------0--------------| 
F#|--------------------------| 
C#|-------0-6---------0----0-| 
G#|---3-5---------3-5--------| 
C#|-0-----------0-------3b---| 

Play Fill 1 x2 
Play Riff 2 x2   "I've got a feeling that comes around..." 

Riff 2 ending this time: 
C#|-0---0---0---0-0----| 
G#|-2---2---2---2-2----| 
F#|-2---2---2---2-2----| 
C#|-0---0---0---0-0----| 
G#|--------------------| 
C#|-----------------3b-| 

Fill 2   "God really knows us all..." 
C#|--------0-----0-----0-----0------0------0---------| 
G#|------0-----0-----0-----0-------------------------| 
F#|----5-----4-----2-----0--------0---0--------------| 
C#|-------------------------------------2----2h3---0-| 
G#|----------------------------2-----------------3---| 
C#|-0------------------------------------------------| 

C#|--------0-----0-----0-----0------0-----0-------0-| 
G#|------0-----0-----0-----0----------------0-----0-| 
F#|----5-----4-----2-----0--------0---0-------------| 
C#|-------------------------------------------------| 
G#|----------------------------2--------3-----3/5---| 
C#|-0-----------------------------------------------| 

Play Fill 2 x2   "God really knows us all..." 

Riff 3   "Please, I know it's too late for my eyes to open..." 
C#|-0---0---0---0-00-0---0---0---0-00-0---0---0---0-00-0---0---0---0-00-| 
G#|-0---0---0---0-00-0---0---0---0-00-0---0---0---0-00-0---0---0---0-00-| 
F#|-7---7---7---7-77-2---2---2---2-22-2---2---2---2-22-2---2---2---2-22-| 
C#|-x---x---x---x-xx-x---x---x---x-xx-0---0---0---0-00-0---0---0---0-00-| 
G#|-8---8---8---8-88-3---3---3---3-33-0---0---0---0-00-0---0---0---0-00-| 
C#|-8-8-8-8-8-8-8-88-3-3-3-3-3-3-3-33-0-0-0-0-0-0-0-00-0-0-0-0-0-0-0-00-| 

Play Riff 3 x2   "Now I see the door closing..." 
Play Riff 1 x8   "I got a feeling..." (strumming pattern remains similar to 
                                       the chorus riff) 
Play Riff 3 x5   "So please, I know it's too late..." 

Ending (just the chords, listen to song for strumming) 
C#|-0---0---0----0~--| 
G#|-0---3---2----3~--| 
F#|-2---2---2----1~--| 
C#|-0---0---0----0~--| 
G#|-0---0---0--------| 
C#|-0----------0-----| 

 
		  

See also:

tabs Slipknot - Duality(ver 2) tabs Slipknot - Surfacing tabs Rainbow - Long Live Rock N' Roll tabs Dream Theater - As I Am tabs Pantera - Hollow tabs Slipknot - The Blister Exists
e-chords

Other versions:

tabs Sevendust - Got A Feeling
auto scroll beats size up size down change color hide chords drawings
tab show chords e-chords YouTube Clip e-chords hide all tabs e-chords go to top tab

share