Sevendust

Aggression

Sevendust

tabs

by  JOV-CORREA

save to print version add songbook text version e-mail correct tuner
chordsukulelecavacokeyboardtabbassdrumsharmonicaflute Guitar Pro
close

there isn't a video lesson for this song

chords

Aggression

	  		

Tuning: Drop C# (C#,G#,C#,F#,A#,D#) 

Riff 1   "Sickening, the things that I see..." 
D#|-------------------------------------------------| 
A#|-13h15-13h15-13h15-13h15-13h16-13h16-13h16-13h16-| 
F#|-------------------------------------------------| 
C#|-------------------------------------------------| 
G#|-------------------------------------------------| 
C#|-------------------------------------------------| 

D#|-------------------------------------------------| 
A#|-13h15-13h15-13h15-13h15-13\11-11/13-13h15-11h13-| 
F#|-------------------------------------------------| 
C#|-------------------------------------------------| 
G#|-------------------------------------------------| 
C#|-------------------------------------------------| 

Play Riff 1 x4   "Dreaming, again I think you're..." 

Riff 1 ending alteration (right before Pre-Chorus): 
D#|-------------------------------------------------| 
A#|-13h15-13h15-13h15-13h15-13\11-11/13-13h15-13h15-| 
F#|-------------------------------------------------| 
C#|-------------------------------------------------| 
G#|-------------------------------------------------| 
C#|-------------------------------------------------| 

Riff 2   "Sleep time, no longer..." 
D#|-----------------------------------------------------| 
A#|-----------------------------------------------------| 
F#|-----------------------------------------------------| 
C#|-----------------------------------------------------| 
G#|-3h5-5-5-5-5-5-5-5-5-5-5-5-5-5-5-5-5-5-5-5-5-5-5-5-5-| 
C#|-----------------------------------------------------| 
        * * * * * * * * * * * * * * * * * * * * * * * * 

D#|-----------------------------------------------------------------------| 
A#|-----------------------------------------------------------------------| 
F#|-----------------------------------------------------------------------| 
C#|-----------------------------------------------------------------------| 
G#|-3h5p3-----------------------------------------------------------------| 
C#|-------4-4-4-4-4-4-4-4-4-4-4-4-4-4-4-4-4-5-5-5-5-5-5-5-5-8-8-8-8-8-8-8-| 
          * * * * * * * * * * * * * * * * * * * * * * * * * * * * * * * * 

D#|-----------------------------------------------------| 
A#|-----------------------------------------------------| 
F#|-----------------------------------------------------| 
C#|-----------------------------------------------------| 
G#|-3h5-5-5-5-5-5-5-5-5-5-5-5-5-5-5-5-5-5-5-5-5-5-5-5-5-| 
C#|-----------------------------------------------------| 
        * * * * * * * * * * * * * * * * * * * * * * * * 

D#|-----------------------------------------------------------------| 
A#|-----------------------------------------------------------------| 
F#|-----------------------------------------------------------------| 
C#|-----------------------------------------------------------------| 
G#|-3h5p3-----------------------------------------------------------| 
C#|-------4-4-4-4-4-4-4-4-4-4-4-4-4-4-4-4-4-5-5-5-5-5-5-5-5-8-8--8\-| 
          * * * * * * * * * * * * * * * * * * * * * * * * 

Riff 3   "Took your wrist and cut it open..." 
D#|--------------------------------------------------------| 
A#|--------------------------------------------------------| 
F#|--------------------------------------------------------| 
C#|----------------------------------12--------------------| 
G#|-----10--10-12-12b13r12-10-------------------12---------| 
C#|-0-0-----------------------12-10-----10-8/10----10-8/10-| 
    * * 

D#|-----------------------------------------------------------| 
A#|-----------------------------------------------------------| 
F#|-----------------------------------------------------------| 
C#|-12-------10----------------7----------------10------------| 
G#|-------------------10---------------10---------------------| 
C#|----10-8-----8-7h8----8-7h8---8-7h8----8-7h8----8-7h8-4-4\-| 

D#|-------------------------------------------------------------| 
A#|-------------------------------------------------------------| 
F#|-------------------------------------------------------------| 
C#|----------------------------------10-12-10-------------------| 
G#|-----10--10-12-12b13r12-10-----------------12-10-12-10-------| 
C#|-0-0-----------------------12-10-----------------------12-10-| 
    * * 

D#|----------------------------------------------------------| 
A#|----------------------------------------------------------| 
F#|----------------------------------------------------------| 
C#|----10----------------7------------10---------------------| 
G#|-------------10-----------10----------------10------------| 
C#|-8-----8-7h8----8-7h8---8----8-7h8----8-7h8----8-7h8-4-4\-| 

Fill 1   "...cutting you open again..." 
D#|----------------| 
A#|----------------| 
F#|----------------| 
C#|-0--0-0--0-0--0-| 
G#|-0--0-0--0-0--0-| 
C#|-0--0-0--0-0--0-| 

Play Riff 1 x4   "...lie still, I'll soon be done with you..." 
Play Riff 2 x1   "Constant controller..." 
                 (don't palm mute the 5's on the G# string 
                  during the 2nd half of this riff this time) 
Play Riff 3 x1   "Took your wrist and cut it open..." 

Lead (w/ wah, let all notes ring out) 
D#|-------------------------------------------| 
A#|-------------------------------------------| 
F#|-------------------------------------------| 
C#|------------------------/7---/8---/10---/5-| 
G#|-/10---/12---/7---7\5-5--------------------| 
C#|-------------------------------------------| 

D#|-------------------------------------------| 
A#|-------------------------------------------| 
F#|-------------------------------------------| 
C#|------------------------/7---/8---/10------| 
G#|-/10---/12---/7---7\5-5--------------------| 
C#|-------------------------------------------| 

D#|-----------------------------------------------------| 
A#|-----------------------------------------------------| 
F#|-12-14-14b15-14-14\-9--9-9-9\7-7--/14--/15--/17--/12-| 
C#|-----------------------------------------------------| 
G#|-----------------------------------------------------| 
C#|-----------------------------------------------------| 

D#|-----------------------------------------| 
A#|-----------------------------------------| 
F#|-12-14-14b15-14--14b15r14-9-9b10r9-7\5-5-| 
C#|-----------------------------------------| 
G#|-----------------------------------------| 
C#|-----------------------------------------| 

D#|------------------------------| 
A#|------------------------------| 
F#|-14'-15'-17'-21'-21b22r21-19~-| 
C#|------------------------------|  ' = tremolo pick 
G#|------------------------------| 
C#|------------------------------| 

Play Riff 3 x2   "Took your wrist and cut it open..." 

Ending 
D#|---------------------------------------------| 
A#|---------------------------------------------| 
F#|---------------------------------------------| 
C#|-0--0-0--0-0--0-----0--0-0--0-0-0-0-1--0-0-1-| 
G#|-0--0-0--0-0--0-----0--0-0--0-0-0-0-1--0-0-1-| 
C#|-0--0-0--0-0--0-----0--0-0--0-0-0-0-1--0-0-1-| 

D#|------------------------------------------------| 
A#|------------------------------------------------| 
F#|------------------------------------------------| 
C#|-0--0-0--0-0--0-x-x--x-0--0-0--0-0-0-0-1--0-0-1-| x2 
G#|-0--0-0--0-0--0-x-x--x-0--0-0--0-0-0-0-1--0-0-1-| 
C#|-0--0-0--0-0--0-x-x--x-0--0-0--0-0-0-0-1--0-0-1-| 

D#|---------------------------------------| 
A#|---------------------------------------| 
F#|---------------------------------------| 
C#|-0--0-0--0-0--0-x-x--x-0--0-0--0-0-0-0-| 
G#|-0--0-0--0-0--0-x-x--x-0--0-0--0-0-0-0-| 
C#|-0--0-0--0-0--0-x-x--x-0--0-0--0-0-0-0-| 

Enjoy!! 
		  

See also:

tabs Slayer - Black Magic tabs Slipknot - Circle (acoustic) tabs Slipknot - The Nameless tabs Slipknot - My Plague tabs Marilyn Manson - Rock Is Dead tabs Alice Cooper - No More Mr. Nice Guy
e-chords

Other versions:

tabs Sevendust - Aggression
auto scroll beats size up size down change color hide chords drawings
tab show chords e-chords YouTube Clip e-chords hide all tabs e-chords go to top tab

share