Seru Giran

Popotitos

Seru Giran

tabs Expert expert

by  FERNSANTANA

save to print version add songbook text version e-mail correct tuner
chordsukulelecavacokeyboardtabbassdrumsharmonicaflute Guitar Pro
close

there isn't a video lesson for this song

chords

Popotitos

	  		popotitos 
intro X2 
1------------------------------------------------ 
2------------------------------------------------ 
3------------------------------------------------ 
4----------------2-2-0--------------------------- 
5------------2-4-------4-2-4--------------------- 
6----0-0-2-4-----------------3-4-0--------------- 

despues de cada estrofa 1 vez 
1------------------------------------------------ 
2------------------------------------------------ 
3------------------------------------------------ 
4----------------2-2-0--------------------------- 
5------------2-4-------4-2-4--------------------- 
6----0-0-2-4-----------------3-4-0--------------- 
		  

See also:

tabs Divididos - Que ves tabs Catupecu Machu - Perfectos Cromosomas tabs A.n.i.m.a.l. - Lejos De Casa tabs Bersuit Vergarabat - La soledad tabs A.n.i.m.a.l. - Loco Pro tabs Divididos - Rasputín
e-chords

Other versions:

tabs Charly Garcia - Popotitos tabs Seru Giran - Popotitos
auto scroll beats size up size down change color hide chords drawings
tab show chords e-chords YouTube Clip e-chords hide all tabs e-chords go to top tab

share