Seriados e Desenhos

home > Seriados e Desenho...

Três espiães demais Tab

Seriados e Desenhos

Difficulty: BeginnerBeginner

by Guirocknaveia

tuner correct add songbook print version text version save to e-mail
chordsukulelecavacokeyboardtabbassdrumsharmonicsflute Guitar Pro
chords

Três espiães demais

  		Essa é a música que toca no final do desenho Três espians demais... 
 
Dúvidas fale com Guilherme Breda Rezende ([email protected]) ou ([email protected]). 
 
Riff: 
 
E:----------------------------------------------------------------------------| 
B:----------------------------------------------------------------------------| 
G:----------------------------------------------------------------------------| 
D:----5-5-5-5-5-5-5----8-8-8-8-8-8-8----10-10-10-10-10-10-10----3-3-3-3-3-3-3-| 
A:----3-3-3-3-3-3-3----6-6-6-6-6-6-6-----8--8--8--8--8--8--8----1-1-1-1-1-1-1-| 
E:----------------------------------------------------------------------------| 
 
Refrão: 
 
E:----------------------------------------------------------------------------| 
B:----------------------------------------------------------------------------| 
G:----------------------------------------------------------------------------| 
D:--5-5-5-5-5-5-5----3-3-3-3-3-3-3----5-5-5-5-5-5-5----3-3-3-3-3-3-3----------| 
A:--3-3-3-3-3-3-3----1-1-1-1-1-1-1----3-3-3-3-3-3-3----1-1-1-1-1-1-1----------| 
E:----------------------------------------------------------------------------| 
 
 
Ordem: 
 
riff 3x 
refrão 1x 
riff 3x 
refrão 1x 
riff 3x 
refrão 1x 
 
___________________________...___________________________________...____________________________________  
 

	  

Search Paypal
auto scroll beats size up size down change color hide chords drawings
tab show chords e-chords YouTube Clip e-chords hide all tabs e-chords go to top tab