Seriados e Desenhos

home > Seriados e Desenho...

Bob Esponja - Final Song Tab

Seriados e Desenhos

Difficulty: BeginnerBeginner

by arthurik

tuner correct add songbook print version text version save to e-mail
chordsukulelecavacokeyboardtabbassdrumsharmonicsflute Guitar Pro
chords

Bob Esponja - Final Song

  		e------7--6--7--9--7-----------7--6--7--9--7-------------7--6--7--9--7---7--6--7--9--7--11--12-- 
---------------------------0--------------------------0---------------------------------------------------------- 
------------------------------------------------------------------------------------------------------------------ 
------------------------------------------------------------------------------------------------------------------ 
-------------------------------2--------------------------2----------------------------------------------------- 
E--------------------------------------------------------------------------------------------------------------- 


e-----14--15---15---15---14--12------------7--6--7--9--7----7--6--7--9--7--11--12----------- 
---------------------------------------------------------------------------------------------------------------- 
---------------------------------------------------------------------------------------------------------------- 
---------------------------------------------------------------------------------------------------------------- 
---------------------------------------------------------------------------------------------------------------- 
E-------------------------------------------------------------------------------------------------------------- 
	  

Search Paypal
auto scroll beats size up size down change color hide chords drawings
tab show chords e-chords YouTube Clip e-chords hide all tabs e-chords go to top tab