Sepultura

home > Sepultura

A Dança Das Borboletas Tab

Sepultura

Difficulty: EasyEasy

by VELHO

tuner correct add songbook print version text version save to e-mail
chordsukulelecavacokeyboardtabbassdrumsharmonicsflute Guitar Pro
chords

A Dança Das Borboletas

  		Int. baixo: 
A|-----------2--------2 
 E—o-o—o---0-0-0        5x 

Entra a guitarra e o baixo continua 

Riff1 
E|-0-0-0-0-2-2-2-2^3-3-3-3^5-0-0----------0----- 
B|-0-0-0-0-2-2-2-2^3-3-3-3^5-0—0----0-------- 
G|-0-0-0-0-2-2-2-2^3-3-3-3^5-0----0----------0-         2x 
D|-2--------------------------------2------2---------- 
A|-2--------------------------------2------------------ 
E|-0--------------------------------0------------------- 

Verso 
E                                                                           
Riff2 
e|-------------0---------------------------0----------|-------------3----------------------------3------- 
b|------0--------0-----------------0---------0-------|------2---------2-----------------2---------2---- 
g|---0-----0--------0----------0-----0---------0----|---3----3----------3----------3-----3---------3- 
d|-----------------------------------------------------|-2-------------------------2---------------------- 
a|-----------------------------------------------------|--------------------------------------------------- 
e|-0------------------------0-------------------------|--------------------------------------------------- 
As borboletas estão voando, a dança louca das borboletas 

Refrão  
 (A4 Bb5 B5 E5 B5 Bb5) 
d|-7-8-9-(2)-9-8- 
a|-7-8-9-(2)-9-8- 
e|-5-6-7—0--7-6- 
Quem vai girar não quer dançar 
só quer voar, avoar 
Quem vai voar não quer dançar 
só quer voar, avoar 

Riff depois dos refrao 
G|-7-9- 
D|-7-9- 
A|-5-7- 
E|------ 

E|-0-0-0-0-2-2-2-2^3-3-3-3^5-0-0----------0----- 
B|-0-0-0-0-2-2-2-2^3-3-3-3^5-0—0----0-------- 
G|-0-0-0-0-2-2-2-2^3-3-3-3^5-0----0----------0-         2x 
D|-2--------------------------------2------2---------- 
A|-2--------------------------------2------------------ 
E|-0--------------------------------0------------------- 

Verso  
E as borboletas estão girando 
Estão virando a sua cabeça 

REFRAO 
(A4 Bb5 B5 E5 B5 Bb5)   
Quem vai girar não quer dançar 
só quer girar, não caia! 
Quem vai girar não quer cair 
só quer girar, não caia! 


E|-0-0-0-0-2-2-2-2^3-3-3-3^5-0-0----------0----- 
B|-0-0-0-0-2-2-2-2^3-3-3-3^5-0—0----0-------- 
G|-0-0-0-0-2-2-2-2^3-3-3-3^5-0----0----------0-         2x 
D|-2--------------------------------2------2---------- 
A|-2--------------------------------2------------------ 
E|-0--------------------------------0------------------- 

PonteParte do sepultura(D5 A5 E5 G5) 
And the butterflies ...(letra no final) 

Riff3  
A|---------------------------- 
E|-3---3-5-6---8-6-5---1-3- 

Letra 
Intro / riff1 
Riff2/As borboletas estão voando 
A dança louca das borboletas 
Refrão Quem vai girar não quer dançar 
só quer voar, avoar 
Quem vai voar não quer dançar 
só quer voar, avoar 

Riff2E as borboletas estão girando 
Estão virando a sua cabeça 
Refrão Quem vai girar não quer dançar 
só quer girar, não caia! 
Quem vai girar não quer cair 
só quer girar, não caia! 

ponte And the butterflies are invading 
the apartments, theatres and bars 
Sewers and rivers, lakes and seas 
turn around, turn around, turn around 
Destroying windows and glass doors 
Escalators and in the chimneys 
They sit and lie in the smoke 
In a rainbow, knows what it is 
Riff3 
Se sabe o que é... Se sabe o que é... 
Se sabe o que é... Se sabe o que é... 
Riff2 
solinho(não foi tirado) 
Riff2 
ponte 
E as borboletas estão invadindo 
os apartamentos, cinemas e bares 
Esgotos e rios e lagos e mares 
Em um rodopio de arrepiar 
Derrubam janelas e portas de vidro 
Escadas rolantes e nas chaminés 
Se sentam e pousam em meio à fumaça 
De um arco-íris, se sabe o que é 
Riff3 
Se sabe o que é... Se sabe o que é... 
Se sabe o que é... Se sabe o que é... 

Se sabe o que é... Se sabe o que é... 
Se sabe o que é... Se sabe o que é... 

Se sabe o que é... Se sabe o que é... 
Se sabe o que é... Se sabe o que é... 

rif4 
d|-5-5-5-5-5-7-8-8-8-8-10-8-7-7-7-7-3-5- 
a|-5-5-5-5-5-7-8-8-8-8-10-8-7-7-7-7-3-5- 
e|-3-3-3-3-3-5-6-6-6-6--8-6-5-5-5-5-1-3- 
	  

Full key step upFull key step up
Half key step upHalf key step up
Half key step downHalf key step down
Full key step downFull key step down
Search Paypal
auto scroll beats size up size down change color hide chords drawings
tab show chords e-chords YouTube Clip e-chords hide all tabs e-chords go to top tab