Senses Fail

Frost Flower

Senses Fail

tabs

by  MARCNAGEL

save to print version add songbook text version e-mail correct tuner
chordsukulelecavacokeyboardtabbassdrumsharmonicaflute Guitar Pro
close

there isn't a video lesson for this song

chords

Frost Flower

	  		
Intro/verse 1 
D|--------------------------------------------------------------------------------------------------------| 
B|--------------------------------------------------------------------------------------------------------| 
F|--------------------------------------------------------------------------------------------------------| 
C|-0---0---0---0---0---0---0---0-----0---0---0---0---0---0---0---0----------------------------------------| 
G|--------------------------------------------------------------------------------------------------------| 
C|---1---1---1---1---1---1---1---1-3---3---3---3---5---5---5---5------------------------------------------| x6 

Chorus 
D|-3~----3-3~----3-3~----3-3~----3-5~----5-5~----5-5~----5-5~----5----------------------------------------| 
B|-6~----6-6~----6-6~----6-6~----6-8~----8-8~----8-8~----8-8~----8----------------------------------------| 
F|-5~----5-5~----5-5~----5-5~----5-7~----7-7~----7-7~----7-7~----7----------------------------------------| 
C|-3~----3-3~----3-3~----3-3~----3-5~----5-5~----5-5~----5-5~----5----------------------------------------| 
G|-3~----3-3~----3-3~----3-3~----3-5~----5-5~----5-5~----5-5~----5----------------------------------------| 
C|-3~----3-3~----3-3~----3-3~----3-5~----5-5~----5-5~----5-5~----5----------------------------------------| x4 

verse 2 
D|--------------------------------------------------------------------------------------------------------| 
B|--------------------------------------------------------------------------------------------------------| 
F|--------------------------------------------------------------------------------------------------------| 
C|--------------------------------------------------------------------------------------------------------| 
G|--------------------------------------------------------------------------------------------------------| 
C|-1-1-1-1-7-7-7-7-8-8-8-8-10-10-10-10-12-12-12-12-12-12-12-12-12-12-12-12-12-12-12-12--------------------| x4 

Pre-Chorus 
D|-3~----3-3~----3-3~----3-3~----3-3~----3-3~----3-3~----3-3-3-3------------------------------------------| 
B|-6~----6-6~----6-6~----6-6~----6-6~----6-6~----6-6~----6-6-6-6------------------------------------------| 
F|-5~----5-5~----5-5~----5-5~----5-5~----5-5~----5-5~----5-5-5-5------------------------------------------| 
C|-3~----3-3~----3-3~----3-3~----3-3~----3-3~----3-3~----3-3-3-3------------------------------------------| 
G|-3~----3-3~----3-3~----3-3~----3-3~----3-3~----3-3~----3-3-3-3------------------------------------------| 
C|-3~----3-3~----3-3~----3-3~----3-3~----3-3~----3-3~----3-3-3-3------------------------------------------| 

Chorus 
D|-3~----3-3~----3-3~----3-3~----3-5~----5-5~----5-5~----5-5~----5----------------------------------------| 
B|-6~----6-6~----6-6~----6-6~----6-8~----8-8~----8-8~----8-8~----8----------------------------------------| 
F|-5~----5-5~----5-5~----5-5~----5-7~----7-7~----7-7~----7-7~----7----------------------------------------| 
C|-3~----3-3~----3-3~----3-3~----3-5~----5-5~----5-5~----5-5~----5----------------------------------------| 
G|-3~----3-3~----3-3~----3-3~----3-5~----5-5~----5-5~----5-5~----5----------------------------------------| 
C|-3~----3-3~----3-3~----3-3~----3-5~----5-5~----5-5~----5-5~----5----------------------------------------| x4 

Bridge/Outro 
D|--------------------------------------------------------------------------------------------------------| 
B|--------------------------------------------------------------------------------------------------------| 
F|--------------------------------------------------------------------------------------------------------| 
C|-0~------------------------------------------------------1-1-1-1----------------------------------------| 
G|-0~--0-0-0~--0-0-0~--0-0-0~--0-0-0~--0-0-0~--0-0-0~--0-0-1-1-1-1----------------------------------------| 
C|-0~--0-0-0~--0-0-0~--0-0-0~--0-0-0~--0-0-0~--0-0-0~--0-0-1-1-1-1----------------------------------------| x2 
       X X     X X     X X     X X     X X     X X     X X 


************************************ 

| ~  Vibrato 

************************************ 
		  

See also:

tabs Fall Out Boy - Sugar, We're Going Down tabs Green Day - Basket Case (ver. 2) tabs Blink 182 - Not Now tabs Blink 182 - Stay Together For the Kids tabs Green Day - Wake Me Up When September Ends tabs Blink 182 - Stay Together 4 the Kids
e-chords

Other versions:

tabs Senses Fail - Frost Flower
auto scroll beats size up size down change color hide chords drawings
tab show chords e-chords YouTube Clip e-chords hide all tabs e-chords go to top tab

share