Senses Fail

Calling All Cars

Senses Fail

tabs Expert expert

by  MAHAPATRA_2009

save to print version add songbook text version e-mail correct tuner
chordsukulelecavacokeyboardtabbassdrumsharmonicaflute Guitar Pro
close

there isn't a video lesson for this song

chords

Calling All Cars

	  		Tuning: DADGBE 

E|--------|--------|--------|--------|--------|--------| 
B|--------|--------|--------|--------|--------|--------| 
G|--------|--------|--------|--------|--------|--------| 
D|44444444|4444444-|22222222|22222222|--------|--------| 
A|22222222|22222220|00000000|00000000|00000000|00000000| 
D|--------|-------0|--------|--------|00000000|00000000| 

E|--------|--------|- 
B|--------|--------|- 
G|--------|--------|6 
D|--------|--------|7 
A|55555555|55555555|5 
D|55555555|55555555|5 

E|------------------------------------------------| 
B|-------------------------------------15-14-12---| 
G|------14--------14-------14-------14----------14| 
D|11-12-----11-12----11-12----11-12---------------| 
A|------------------------------------------------| 
D|------------------------------------------------| 

E|---------------------------------------------12----17 
B|------------------------------------15-14-15----15--- 
G|------14-------14-------14-------14------------------ 
D|11-12----11-12----11-12----11-12--------------------- 
A|----------------------------------------------------- 
D|----------------------------------------------------- 

E|----14-15-14----------------------17----14-15-14---- 
B|-15----------15-15-15-14-14-15-15----15----------15- 
G|---------------------------------------------------- 
D|---------------------------------------------------- 
A|---------------------------------------------------- 
D|---------------------------------------------------- 

E|------------------| 
B|15-15-14-14-15-12~| 
G|------------------| 
D|------------------| 
A|------------------| 
D|------------------| 

		  

See also:

tabs Green Day - 16 tabs Blink 182 - Feeling This tabs Blink 182 - Stay Together 4 the Kids tabs Green Day - Wake Me Up When September Ends tabs Blink 182 - First Date tabs Green Day - 21 Guns
e-chords

Other versions:

tabs Senses Fail - Calling All Cars
auto scroll beats size up size down change color hide chords drawings
tab show chords e-chords YouTube Clip e-chords hide all tabs e-chords go to top tab

share