Selig

Wir Werden Uns Wiedersehn

Selig

tabs

by  HUGO_RODRIGUES

save to print version add songbook text version e-mail correct tuner
chordsukulelecavacokeyboardtabbassdrumsharmonicaflute Guitar Pro
close

there isn't a video lesson for this song

chords

Wir Werden Uns Wiedersehn

	  		

Intro 0:00 ? 0:14 
e|-------0---------| 
B|-----------0-----| 
G|-----2-----------| x8 
D|-4---------------| 
A|-----------------| 
E|-----------------| 
  let ring 

Intro 0:14 ? 0:26 
e|-----------------|---------0-------|-----------------|----------0------| 
B|-----------------|---------0-------|-----------------|----------0------| 
G|---------------6/|-9-9-----------9\|-6-6-----------6/|-8-8-------------| 
D|-4-------------x-|-x-x-----------x-|-x-x-----------x-|-x-x-------------| 
A|-x-------------4/|-7-7-----------7\|-4-4-----------4/|-6-6-------------| 
E|-2---------------|-----------------|-----------------|-----------------| 
  with light overdrive 

e|-----------------|---------0-------|-----------------|-----------------| 
B|-----------------|---------0-------|-----------------|-----------------| 
G|---------------6/|-9-9-----------9\|-6-6-----------6\|-4-4-------------| 
D|-4-------------x-|-x-x-----------x-|-x-x-----------x-|-x-x-------------| 
A|-x-------------4/|-7-7-----------7\|-4-4-----------4\|-2-2-------------| 
E|-2---------------|-----------------|-----------------|-----------------| 

verse 1 
e|-------0---------|-------0---------|-------0---------|-------0---------| 
B|-----------0-----|-----------0-----|-----------0-----|-----------0-----| 
G|-----2-----------|-----2-----------|-----2-----------|-----2-----------| 
D|-4---------------|-4---------------|-2---------------|-2---------------| 
A|-----------------|-----------------|-----------------|-----------------| 
E|-----------------|-----------------|-----------------|-----------------| 
  let ring 
e|-------0---------|-------0---------|-------0---------|-----------------| 
B|-----------0-----|-----------0-----|-----------0-----|-------0---------| 
G|-----1-----------|-----1-----------|-----2-----------|-----2-----2-----| x2 
D|-2---------------|-2---------------|-4---------------|-4---------------|  
A|-----------------|-----------------|-----------------|-----------------| 
E|-----------------|-----------------|-----------------|-----------------| 

Pre Chorus 1 
e|-----------------|-----------------|-----------------|-----------------| 
B|-----------------|-----------------|-5-5-5-5-5-5-5-5-|-5-5-5-5-5-5-5-5-| 
G|-7-7-7-7-7-7-7-7-|-7-7-7-7-7-7-7-7-|-6-6-6-6-6-6-6-6-|-6-6-6-6-6-6-6-6-| 
D|-7-7-7-7-7-7-7-7-|-7-7-7-7-7-7-7-7-|-6-6-6-6-6-6-6-6-|-6-6-6-6-6-6-6-6-| 
A|-5-5-5-5-5-5-5-5-|-5-5-5-5-5-5-5-5-|-4-4-4-4-4-4-4-4-|-4-4-4-4-4-4-4-4-| 
E|-----------------|-----------------|-----------------|-----------------| 
  with light overdrive 
e|-----------------|-----------------|-----------------|-----------------| 
B|-----------------|-----------------|-----------------|-----------------| 
G|-7-7-7-7-7-7-7-7-|-7-7-7-7-7-7-7-7-|-----------------|-----------------| 
D|-7-7-7-7-7-7-7-7-|-7-7-7-7-7-7-7-7-|-2-2-2-2-2-2-2-2-|-2-2-2-2-2-2-2-2-| 
A|-5-5-5-5-5-5-5-5-|-5-5-5-5-5-5-5-5-|-2-2-2-2-2-2-2-2-|-2-2-2-2-2-2-2-2-| 
E|-----------------|-----------------|-0-0-0-0-0-0-0-0-|-0-0-0-0-0-0-0-0-| 

e|-----------------|-----------------|-----------------|-----------------| 
B|-----------------|-----------------|-5-5-5-5-5-5-5-5-|-5-5-5-5-5-5-5-5-| 
G|-7-7-7-7-7-7-7-7-|-7-7-7-7-7-7-7-7-|-6-6-6-6-6-6-6-6-|-6-6-6-6-6-6-6-6-| 
D|-7-7-7-7-7-7-7-7-|-7-7-7-7-7-7-7-7-|-6-6-6-6-6-6-6-6-|-6-6-6-6-6-6-6-6-| 
A|-5-5-5-5-5-5-5-5-|-5-5-5-5-5-5-5-5-|-4-4-4-4-4-4-4-4-|-4-4-4-4-4-4-4-4-| 
E|-----------------|-----------------|-----------------|-----------------| 

e|-----------------|-----------------|-----------------|-----------------| 
B|-----------------|-----------------|-----------------|-----------------| 
G|-7-7-7-7-7-7-7-7-|-7-7-7-7-7-7-7-7-|-9-9-9-9-9-9-9-9-|-9-9-9-9-9-9-9-9-| 
D|-7-7-7-7-7-7-7-7-|-7-7-7-7-7-7-7-7-|-9-9-9-9-9-9-9-9-|-9-9-9-9-9-9-9-9-| 
A|-5-5-5-5-5-5-5-5-|-5-5-5-5-5-5-5-5-|-7-7-7-7-7-7-7-7-|-7-7-7-7-7-7-7-7-| 
E|-----------------|-----------------|-----------------|-0-0-0-0-0-0-0-0-| 

Chorus 1 
e|-----------------|-----------------|-----------------|-----------------| 
B|-----------------|-----------------|-----------------|-----------------| 
G|-----------------|-7-7-7-7-7-7-7-7-|-----------------|-----------------| 
D|-4-4-4-4-4-4-4-4-|-7-7-7-7-7-7-7-7-|-7-7-7-7-7-7-7-7/|-9-9-9-9-9-9-9-9-| 
A|-4-4-4-4-4-4-4-4-|-5-5-5-5-5-5-5-5-|-7-7-7-7-7-7-7-7/|-9-9-9-9-9-9-9-9-| 
E|-2-2-2-2-2-2-2-2-|-----------------|-5-5-5-5-5-5-5-5/|-7-7-7-7-7-7-7-7-| 
  with distortion 
e|-----------------|-----------------|-----------------|-----------------| 
B|-----------------|-----------------|-----------------|-----------------| 
G|-----------------|-7-7-7-7-7-7-7-7-|-----------------|-----------------| 
D|-4-4-4-4-4-4-4-4-|-7-7-7-7-7-7-7-7-|-7-7-7-7-7-7-7-7-|-2-2-2-2-2-2-2-2-| 
A|-4-4-4-4-4-4-4-4-|-5-5-5-5-5-5-5-5-|-7-7-7-7-7-7-7-7-|-2-2-2-2-2-2-2-2-| 
E|-2-2-2-2-2-2-2-2-|-----------------|-5-5-5-5-5-5-5-5-|-0-0-0-0-0-0-0-0-| 

e|-----------------|-----------------|-----------------|-----------------| 
B|-----------------|-----------------|-----------------|-----------------| 
G|-----------------|-7-7-7-7-7-7-7-7-|-----------------|-----------------| 
D|-4-4-4-4-4-4-4-4-|-7-7-7-7-7-7-7-7-|-7-7-7-7-7-7-7-7/|-9-9-9-9-9-9-9-9-| 
A|-4-4-4-4-4-4-4-4-|-5-5-5-5-5-5-5-5-|-7-7-7-7-7-7-7-7/|-9-9-9-9-9-9-9-9-| 
E|-2-2-2-2-2-2-2-2-|-----------------|-5-5-5-5-5-5-5-5/|-7-7-7-7-7-7-7-7-| 

e|-----------------|-----------------|-----------------|-----------------| 
B|-----------------|-----------------|-----------------|-----------------| 
G|-----------------|-7-7-7-7-7-7-7-7-|-----------------|-9-9-9-9-9-9-9-9-| 
D|-4-4-4-4-4-4-4-4-|-7-7-7-7-7-7-7-7-|-7-7-7-7-7-7-7-7-|-9-9-9-9-9-9-9-9-| 
A|-4-4-4-4-4-4-4-4-|-5-5-5-5-5-5-5-5-|-7-7-7-7-7-7-7-7-|-7-7-7-7-7-7-7-7-| 
E|-2-2-2-2-2-2-2-2-|-----------------|-5-5-5-5-5-5-5-5-|-----------------| 

Interlude 
e|-------0---------| 
B|-----------0-----| 
G|-----2-----------| x4 
D|-4---------------| 
A|-----------------| 
E|-----------------| 
  let ring 

verse 2 
e|-------0---------|-------0---------|-------0---------|-------0---------| 
B|-----------0-----|-----------0-----|-----------0-----|-----------0-----| 
G|-----2-----------|-----2-----------|-----2-----------|-----2-----------| 
D|-4---------------|-4---------------|-2---------------|-2---------------| 
A|-----------------|-----------------|-----------------|-----------------| 
E|-----------------|-----------------|-----------------|-----------------| 
  let ring 
e|-------0---------|-------0---------|-------0---------|-----------------| 
B|-----------0-----|-----------0-----|-----------0-----|-------0---------| 
G|-----1-----------|-----1-----------|-----2-----------|-----2-----2-----| x2 
D|-2---------------|-2---------------|-4---------------|-4---------------|  
A|-----------------|-----------------|-----------------|-----------------| 
E|-----------------|-----------------|-----------------|-----------------| 

Pre Chorus 2 
e|-----------------|-----------------|-----------------|-----------------| 
B|-----------------|-----------------|-5-5-5-5-5-5-5-5-|-5-5-5-5-5-5-5-5-| 
G|-7-7-7-7-7-7-7-7-|-7-7-7-7-7-7-7-7-|-6-6-6-6-6-6-6-6-|-6-6-6-6-6-6-6-6-| 
D|-7-7-7-7-7-7-7-7-|-7-7-7-7-7-7-7-7-|-6-6-6-6-6-6-6-6-|-6-6-6-6-6-6-6-6-| 
A|-5-5-5-5-5-5-5-5-|-5-5-5-5-5-5-5-5-|-4-4-4-4-4-4-4-4-|-4-4-4-4-4-4-4-4-| 
E|-----------------|-----------------|-----------------|-----------------| 
  with light overdrive 
e|-----------------|-----------------|-----------------|-----------------| 
B|-----------------|-----------------|-----------------|-----------------| 
G|-7-7-7-7-7-7-7-7-|-7-7-7-7-7-7-7-7-|-----------------|-----------------| 
D|-7-7-7-7-7-7-7-7-|-7-7-7-7-7-7-7-7-|-2-2-2-2-2-2-2-2-|-2-2-2-2-2-2-2-2-| 
A|-5-5-5-5-5-5-5-5-|-5-5-5-5-5-5-5-5-|-2-2-2-2-2-2-2-2-|-2-2-2-2-2-2-2-2-| 
E|-----------------|-----------------|-0-0-0-0-0-0-0-0-|-0-0-0-0-0-0-0-0-| 

e|-----------------|-----------------|-----------------|-----------------| 
B|-----------------|-----------------|-5-5-5-5-5-5-5-5\|-----------------| 
G|-7-7-7-7-7-7-7-7-|-7-7-7-7-7-7-7-7-|-6-6-6-6-6-6-6-6\|-rest------------| 
D|-7-7-7-7-7-7-7-7-|-7-7-7-7-7-7-7-7-|-6-6-6-6-6-6-6-6\|-----------------| 
A|-5-5-5-5-5-5-5-5-|-5-5-5-5-5-5-5-5-|-4-4-4-4-4-4-4-4\|-----------------| 
E|-----------------|-----------------|-----------------|-----------------| 

Chorus 2 
e|-----------------|-----------------|-----------------|-----------------| 
B|-----------------|-----------------|-----------------|-----------------| 
G|-----------------|-7-7-7-7-7-7-7-7-|-----------------|-----------------| 
D|-4-4-4-4-4-4-4-4-|-7-7-7-7-7-7-7-7-|-7-7-7-7-7-7-7-7/|-9-9-9-9-9-9-9-9-| 
A|-4-4-4-4-4-4-4-4-|-5-5-5-5-5-5-5-5-|-7-7-7-7-7-7-7-7/|-9-9-9-9-9-9-9-9-| 
E|-2-2-2-2-2-2-2-2-|-----------------|-5-5-5-5-5-5-5-5/|-7-7-7-7-7-7-7-7-| 
  with distortion 
e|-----------------|-----------------|-----------------|-----------------| 
B|-----------------|-----------------|-----------------|-----------------| 
G|-----------------|-7-7-7-7-7-7-7-7-|-----------------|-----------------| 
D|-4-4-4-4-4-4-4-4-|-7-7-7-7-7-7-7-7-|-7-7-7-7-7-7-7-7-|-2-2-2-2-2-2-2-2-| 
A|-4-4-4-4-4-4-4-4-|-5-5-5-5-5-5-5-5-|-7-7-7-7-7-7-7-7-|-2-2-2-2-2-2-2-2-| 
E|-2-2-2-2-2-2-2-2-|-----------------|-5-5-5-5-5-5-5-5-|-0-0-0-0-0-0-0-0-| 

e|-----------------|-----------------|-----------------|-----------------| 
B|-----------------|-----------------|-----------------|-----------------| 
G|-----------------|-7-7-7-7-7-7-7-7-|-----------------|-----------------| 
D|-4-4-4-4-4-4-4-4-|-7-7-7-7-7-7-7-7-|-7-7-7-7-7-7-7-7/|-9-9-9-9-9-9-9-9-| 
A|-4-4-4-4-4-4-4-4-|-5-5-5-5-5-5-5-5-|-7-7-7-7-7-7-7-7/|-9-9-9-9-9-9-9-9-| 
E|-2-2-2-2-2-2-2-2-|-----------------|-5-5-5-5-5-5-5-5/|-7-7-7-7-7-7-7-7-| 

e|-----------------|-----------------|-----------------|-----------------| 
B|-----------------|-----------------|-----------------|-----------------| 
G|-----------------|-7-7-7-7-7-7-7-7-|-----------------|-9-9-9-9-9-9-9-9-| 
D|-4-4-4-4-4-4-4-4-|-7-7-7-7-7-7-7-7-|-7-7-7-7-7-7-7-7-|-9-9-9-9-9-9-9-9-| 
A|-4-4-4-4-4-4-4-4-|-5-5-5-5-5-5-5-5-|-7-7-7-7-7-7-7-7-|-7-7-7-7-7-7-7-7-| 
E|-2-2-2-2-2-2-2-2-|-----------------|-5-5-5-5-5-5-5-5-|-----------------| 

Interlude 2 
e|-----------------|---------0-------|-----------------|---------0-------| 
B|-----------------|---------0-------|-----------------|---------0-------| 
G|---------------6/|-9-9-----------9\|-6-6-----------6/|-8-8-------------| 
D|-4-------------x-|-x-x-----------x-|-x-x-----------x-|-x-x-------------| 
A|-x-------------4/|-7-7-----------7\|-4-4-----------4/|-6-6-------------| 
E|-2---------------|-----------------|-----------------|-----------------| 
  with light overdrive 

e|-----------------|---------0-------|-----------------|-----------------| 
B|-----------------|---------0-------|-----------------|-----------------| 
G|---------------6/|-9-9-----------9\|-6-6-----------6\|-4-4-------------| 
D|-4-------------x-|-x-x-----------x-|-x-x-----------x-|-x-x-------------| 
A|-x-------------4/|-7-7-----------7\|-4-4-----------4\|-2-2-------------| 
E|-2---------------|-----------------|-----------------|-----------------| 

e|-----------------|-----------------| 
B|-3---------------|(3)--------------| 
G|-2---------------|(2)--------------| 
D|-0---------------|(0)--------------| 
A|-----------------|-----------------| 
E|-----------------|-----------------| 
  distortion on 

Chorus 3 
e|-----------------|-----------------|-----------------|-----------------| 
B|-----------------|-----------------|-----------------|-----------------| 
G|-----------------|-7-7-7-7-7-7-7-7-|-----------------|-----------------| 
D|-4-4-4-4-4-4-4-4-|-7-7-7-7-7-7-7-7-|-7-7-7-7-7-7-7-7/|-9-9-9-9-9-9-9-9-| 
A|-4-4-4-4-4-4-4-4-|-5-5-5-5-5-5-5-5-|-7-7-7-7-7-7-7-7/|-9-9-9-9-9-9-9-9-| 
E|-2-2-2-2-2-2-2-2-|-----------------|-5-5-5-5-5-5-5-5/|-7-7-7-7-7-7-7-7-| 

e|-----------------|-----------------|-----------------|-----------------| 
B|-----------------|-----------------|-----------------|-----------------| 
G|-----------------|-7-7-7-7-7-7-7-7-|-----------------|-----------------| 
D|-4-4-4-4-4-4-4-4-|-7-7-7-7-7-7-7-7-|-7-7-7-7-7-7-7-7-|-2-2-2-2-2-2-2-2-| 
A|-4-4-4-4-4-4-4-4-|-5-5-5-5-5-5-5-5-|-7-7-7-7-7-7-7-7-|-2-2-2-2-2-2-2-2-| 
E|-2-2-2-2-2-2-2-2-|-----------------|-5-5-5-5-5-5-5-5-|-0-0-0-0-0-0-0-0-| 

e|-----------------|-----------------|-----------------|-----------------| 
B|-----------------|-----------------|-----------------|-----------------| 
G|-----------------|-7-7-7-7-7-7-7-7-|-----------------|-----------------| 
D|-4-4-4-4-4-4-4-4-|-7-7-7-7-7-7-7-7-|-7-7-7-7-7-7-7-7/|-9-9-9-9-9-9-9-9-| 
A|-4-4-4-4-4-4-4-4-|-5-5-5-5-5-5-5-5-|-7-7-7-7-7-7-7-7/|-9-9-9-9-9-9-9-9-| 
E|-2-2-2-2-2-2-2-2-|-----------------|-5-5-5-5-5-5-5-5/|-7-7-7-7-7-7-7-7-| 

e|-----------------|-----------------|-----------------|-----------------| 
B|-----------------|-----------------|-----------------|-----------------| 
G|-----------------|-7-7-7-7-7-7-7-7-|-----------------|-9-9-9-9-9-9-9-9-| 
D|-4-4-4-4-4-4-4-4-|-7-7-7-7-7-7-7-7-|-7-7-7-7-7-7-7-7-|-9-9-9-9-9-9-9-9-| 
A|-4-4-4-4-4-4-4-4-|-5-5-5-5-5-5-5-5-|-7-7-7-7-7-7-7-7-|-7-7-7-7-7-7-7-7-| 
E|-2-2-2-2-2-2-2-2-|-----------------|-5-5-5-5-5-5-5-5-|-----------------| 

Final Chorus 
e|-----------------|-----------------|-----------------|-----------------| 
B|-----------------|-----------------|-----------------|-----------------| 
G|-----------------|-7-7-7-7-7-7-7-7-|-----------------|-----------------| 
D|-4-4-4-4-4-4-4-4-|-7-7-7-7-7-7-7-7-|-7-7-7-7-7-7-7-7-|-7/9-9-9-9-9-9-9-| 
A|-4-4-4-4-4-4-4-4-|-5-5-5-5-5-5-5-5-|-7-7-7-7-7-7-7-7-|-7/9-9-9-9-9-9-9-| 
E|-2-2-2-2-2-2-2-2-|-----------------|-5-5-5-5-5-5-5-5-|-5/7-7-7-7-7-7-7-| 

e|-----------------|-----------------|-----------------|-----------------| 
B|-----------------|-----------------|-----------------|-----------------| 
G|-----------------|-7-7-7-7-7-7-7-7-|-----------------|-9-9-9-9-9-9-9\\\| 
D|-4-4-4-4-4-4-4-4-|-7-7-7-7-7-7-7-7-|-7-7-7-7-7-7-7-7-|-9-9-9-9-9-9-9\\\| 
A|-4-4-4-4-4-4-4-4-|-5-5-5-5-5-5-5-5-|-7-7-7-7-7-7-7-7-|-7-7-7-7-7-7-7\\\| 
E|-2-2-2-2-2-2-2-2-|-----------------|-5-5-5-5-5-5-5-5-|-----------------| 

Outro 
e|-----------------|-----------------|-----------------|-----------------| 
B|-----------------|-------------2---|-----------------|-------------2---| 
G|-----------------|-------------2---|-----------------|-------------2---| 
D|-4-4-4-4-4-4-4-4-|-4-4-4-4-4-4-2---|-4-4-4-4-4-4-4-4-|-4-4-4-4-4-4-2---| 
A|-4-4-4-4-4-4-4-4-|-4-4-4-4-4-4-----|-4-4-4-4-4-4-4-4-|-4-4-4-4-4-4-----| 
E|-0-2-2-0-2-2-0-2-|-2-0-2-2-0-0-----|-0-2-2-0-2-2-0-2-|-2-0-2-2-0-0-----| 

e|-----------------|-----------------|-----------------|-----------------| 
B|-----------------|-------------2---|-----------------|-------------2--\| 
G|-----------------|-------------2---|-----------------|-------------2--\| 
D|-4-4-4-4-4-4-4-4-|-4-4-4-4-4-4-2---|-4-4-4-4-4-4-4-4-|-4-4-4-4-4-4-2--\| 
A|-4-4-4-4-4-4-4-4-|-4-4-4-4-4-4-----|-4-4-4-4-4-4-4-4-|-4-4-4-4-4-4-----| 
E|-0-2-2-0-2-2-0-2-|-2-0-2-2-0-0-----|-0-2-2-0-2-2-0-2-|-2-0-2-2-0-0-----| 
		  

See also:

tabs Die Toten Hosen - Friss Oder Stirb tabs Frei.Wild - Zieh Mit Den Gttern tabs Die Toten Hosen - Lasset Uns Singen tabs Selig - Wir Werden Uns Wiedersehn tabs Die Toten Hosen - Kopf Oder Zahl tabs Eisbrecher - Antikorper
e-chords

Other versions:

tabs Selig - Wir Werden Uns Wiedersehn
auto scroll beats size up size down change color hide chords drawings
tab show chords e-chords YouTube Clip e-chords hide all tabs e-chords go to top tab

share