Selfmindead

home > Selfmindead

Always Tab

Selfmindead

Difficulty: nolevelnolevel

by blitzzkrieg

tuner correct add songbook print version text version save to e-mail
chordsukulelecavacokeyboardtabbassdrumsharmonicsflute Guitar Pro
chords

Always

  		Both guitars + bass: 
Intro: 
D|---------|------------------------------------ 
A|---------|------------------------------------ 
F|---------|------------------------------------ 
C|---------|------------------------------------ 
G|---------|--3-0-2-0-2-3-2-0--0-2-0-2-3--2-0--- 
C|--2-0-2--|--3-0-2-0-2-3-2-0--0-2-0-3-3--2-0--- 8x  
 
Both guitars + bass: 
D|----------------- 
A|----------------- 
F|----------------- 
C|x--0-0-0-0--0-0-- 
G|x--0-0-0-0--0-0-- 
C|x--0-0-0-0--0-0-- 16x 
 
Chorus: Both guitars + bass: 
D|-------------------------------0-0--------------- 
A|-------------------------------5-5------6-6-6-6-- 
F|--6-6-6-6-------------7-7------5-5-5-5--7-7-7-7-- 
C|--4-4-4-4-------------0-0-0-0--3-3-3-3--5-5-5-5-- 
G|--4-4-4-4--5-7-5-3-2--0-0-0-0--3-3-3-3--5-5-5-5-- 
C|--4-4-4-4--5-7-5-3-2--0-0-0-0--3-3-3-3--5-5-5-5-- 
 
Both guitars + bass 
D|----------------- 
A|----------------- 
F|----------------- 
C|x--0-0-0-0--0-0-- 
G|x--0-0-0-0--0-0-- 
C|x--0-0-0-0--0-0-- 32x 
 
Chorus: Both guitars + bass: 
D|-------------------------------0-0--------------- 
A|-------------------------------5-5------6-6-6-6-- 
F|--6-6-6-6-------------7-7------5-5-5-5--7-7-7-7-- 
C|--4-4-4-4-------------0-0-0-0--3-3-3-3--5-5-5-5-- 
G|--4-4-4-4--5-7-5-3-2--0-0-0-0--3-3-3-3--5-5-5-5-- 
C|--4-4-4-4--5-7-5-3-2--0-0-0-0--3-3-3-3--5-5-5-5--  2x 
 
(intro)Guitar 1 + bass:                    Guitar 2: 
D|------------------------------------     D|----------------------------------------- 
A|------------------------------------     A|----------------------------------------- 
F|------------------------------------     F|--2-2-2-2---1-1-1-1---2-2-2-2---1-1-1-1-- 
C|------------------------------------     C|----------------------------------------- 
G|--3-0-2-0-2-3-2-0--0-2-0-2-3--2-0---     G|----------------------------------------- 
C|--3-0-2-0-2-3-2-0--0-2-0-3-3--2-0--- 8x  C|----------------------------------------- 
 
(solo)Guitar 1: 
D|---------6-5-8-9/11-9-8-9-6-5-6-8-6-5-3-2-3-5-3-2-3-2--------4-3------------------------------------ 
A|-3-6-5-2----------------------------------------------3-1--4-------1-0-1-0-4-3-1-0-1-0-4-3-1-0-1-0-- 
 
Guitar 2 + bass:     then  Both guitars + bass: 
D|-----------------        C|-0-0-0--   
A|-----------------        G|-0-0-0--    
F|-----------------        C|-0-0-0-- 
C|x--0-0-0-0--0-0-- 
G|x--0-0-0-0--0-0-- 
C|x--0-0-0-0--0-0-- 
 
Chorus: Both guitars + bass: 
D|-------------------------------0-0--------------- 
A|-------------------------------5-5------6-6-6-6-- 
F|--6-6-6-6-------------7-7------5-5-5-5--7-7-7-7-- 
C|--4-4-4-4-------------0-0-0-0--3-3-3-3--5-5-5-5-- 
G|--4-4-4-4--5-7-5-3-2--0-0-0-0--3-3-3-3--5-5-5-5-- 
C|--4-4-4-4--5-7-5-3-2--0-0-0-0--3-3-3-3--5-5-5-5--  2x 
 
Guitar 1+ bass:         Guitar 2: 
D|-------------------   D|----------------------------------------------------- 
A|-------------------   A|----------------------------------------------------- 
F|-------------------   F|--2-2-2-2--2-2-2---5-5-5-5--5-5-5---3-3-3-3--3-3-3--- 
C|--0-0-0-0--0-0-0---   C|--0-0-0-0--0-0-0---0-0-0-0--0-0-0---0-0-0-0--0-0-0--- 
G|--0-0-0-0--0-0-0---   G|--0-0-0-0--0-0-0---0-0-0-0--0-0-0---0-0-0-0--0-0-0--- 
C|--0-0-0-0--0-0-0---   C|--0-0-0-0--0-0-0---0-0-0-0--0-0-0---0-0-0-0--0-0-0--- 
 
END. 
 

	  

Search Paypal
auto scroll beats size up size down change color hide chords drawings
tab show chords e-chords YouTube Clip e-chords hide all tabs e-chords go to top tab