Seigmen

Ameneon

Seigmen

tabs

by  IRONPOWER4EVER

save to print version add songbook text version e-mail correct tuner
chordsukulelecavacokeyboardtabbassdrumsharmonicaflute Guitar Pro
close

there isn't a video lesson for this song

chords

Ameneon

	  		

  s  = Slide 
  sp = Slide and then pick string directly after slide 
  h  = Hammer-on 

   ------------------ 
  |Part 1 of the song| 
   ------------------ 
   
  Guitar 1 "Intro" 00:00 

 |--------------------------------------------------------------------| 
 |--------------------------------------------------------------------| 
 |-----2-----------------2--------------------------------------------| 
 |--------5-----5--4--------5-----------------------------------------| 
 |--2--------2--------2-----------------------------------------------| 
 |--------------------------------------------------------------------| 

  Guitar 1 1st "verse" part 1 00:06-00:52 
  
 ||------------------------------------------------------------------|| 
 ||------------------------------------------------------------------|| 
 ||-----------------------------2------------------------------------|| x 18 
 ||-----5--4-----5--4-----5--4-----5--4------------------------------|| 
 ||--2--------2--------2---------------------------------------------|| 
 ||------------------------------------------------------------------|| 

  Guitar 2 1st "verse" part 1 00:06-00:39 

 ||------------------------------------------------------------------|| 
 ||------------------------------------------------------------------|| 
 ||--------------------------------------------6---------------------|| x 3 
 ||--7sp5--4sp0--2sp4--4--2sp7--5--4sp0--2sp4--7---------------------|| 
 ||------------------------------------------------------------------|| 
 ||------------------------------------------------------------------|| 

  Guitar 2 1st "verse"  part 1 00:39-00:52 

 |--------------------------------------------------------------------| 
 |--------------------------------------------------------------------| 
 |--------------------------------------------------------------------| 
 |--7sp5--4sp0--2sp4--4--2sp7--5--4sp0--2-----2h4--4h5----------------| 
 |-----------------------------------------2--------------------------| 
 |--------------------------------------------------------------------| 

  Guitar 1 1st "verse" part 2 00:52-01:04 

 |--------------------------------------------------------------------| 
 |--------------------------------------------------------------------| 
 |--------------------------------------------------------------------| 
 |--------------------------------------------------------------------| 
 |--------------------------------------------------------------------| 
 |--0--0--0--0--0--0--0--0--0--0--0--0--0--0--0--0--------------------| 

  Guitar 1 1st "verse" part 2 01:04-01:14  

 |--------------------------------------------------------------------| 
 |--------------------------------------------------------------------| 
 |--------------------------------------------------------------------| 
 |--4--4--4--4--4--4--4--4--4--4--4--4--4--4--4--4--------------------| 
 |--2--2--2--2--2--2--2--2--2--2--2--2--2--2--2--2--------------------| 
 |--------------------------------------------------------------------| 

  Guitar 1 1st "verse" part 2 01:14-01:21  (Palm mute all notes) 

 |--------------------------------------------------------------------| 
 |--------------------------------------------------------------------| 
 |--------------------------------------------------------------------| 
 |--------------------------------------------------------------------| 
 |--------------------------------------------------------------------| 
 |--0-0-0-0-0-0-2-2-2-2-2-2-3-3-3-3-3-3-5-5-5-5-5-5-7-7-7-7-7-7-8-8-8-| 

  Guitar 1 1st "verse" part 2 01:21-01:29  (Palm mute all notes) 

 |--------------------------------------------------------------------| 
 |--------------------------------------------------------------------| 
 |--------------------------------------------------------------------| 
 |--------------------------------------------------------------------| 
 |--------5-5-5-5-5-5-7-7-7-7-7-7-9-9-9-9-9-9-10-10-10-10-10-10-9-9-9-| 
 |-8-8-8--------------------------------------------------------------| 

  Guitar 1 1st "verse" part 2 01:21-01:36   
  (Palm mute all notes until 2 '-' between notes) 

 |--------------------------------------------------------------------| 
 |--------------------------------------------------------------------| 
 |--------------------------------------------------------------------| 
 |--------------------------------------------------------------------| 
 |-9-9-9-7-7-7-7-7-7--9--9--5--5--7--7--4--4--4s5--5--5s7--7--7s9--9--| 
 |--------------------------------------------------------------------| 

  Guitar 1 1st "verse" part 2 01:36-01:45   

 |--------------------------------------------------------------------| 
 |--------------------------------------------------------------------| 
 |--------------------------------------------------------------------| 
 |--------------------------------------------------------------------| 
 |--9h10--10--9----9---7--9--10---------------------------------------| 
 |---------------------------0----------------------------------------| 


  Guitar 2 1st "verse" part 2 00:52-01:10 

 |--------------------------------------------------------------------| 
 |--------------------------------------------------------------------| 
 |-----------6------------------------2-------------------------------| 
 |--5--5--4-----2h4--4h5--5--5sp4--4-----2--4--4s5--5--4--2--4--4s5---| 
 |--------------------------------------------------------------------| 
 |--------------------------------------------------------------------| 

  
  Guitar 2 1st "verse" part 2 01:10-01:24   

 |--------------------------------------------------------------------| 
 |--------------------------------------------------------------------| 
 |--------------------------------------------------------------------| 
 |--5h7--4--2h4--4h5--5--5--5--5--5--5--4--2h4--4h5--5--5--5--5--5--5-| 
 |--------------------------------------------------------------------| 
 |--------------------------------------------------------------------| 

  
  Guitar 2 1st "verse" part 2 01:24-01:38   

 |--------------------------------------------------------------------| 
 |--------------------------------------------------------------------| 
 |-------------4--4--4--2--2--2-----------4-----2-----2---------------| 
 |-4--2--4sp5--------------------2--4--5-----5-----4-----2sp4--4sp5-4-| 
 |--------------------------------------------------------------------| 
 |--------------------------------------------------------------------| 

  
  Guitar 3 00:06-01:37  01:37-01:46          02:01-03:16      

 |--0-----0-----0-----|--0--0--0--0--0--|---0-----0-----0-----0-------| 
 |-----0-----0-----0--|--0--0--0--0--0--|------0-----0-----0----------| 
 |--------------------|-----------------|-----------------------------| 
 |--------------------|-----------------|-----------------------------| 
 |--------------------|-----------------|-----------------------------| 
 |--------------------|-----------------|-----------------------------|  

  Guitar 4 1st "verse" part 2 Harmony part with guitar 1 01:14-01:25   

 |--------------------------------------------------------------------| 
 |--------------------------------------------------------------------| 
 |---------------------4--4--4--2---------------------7--7--7---------| 
 |--2h4--4h5--5--------------------2h4--4h5--5--5--5------------------| 
 |---------------7--7-------------------------------------------------| 
 |--------------------------------------------------------------------| 

  
  Guitar 5 1st "verse" part 2 Bass lines 01:14-01:29   

 |--------------------------------------------------------------------| 
 |--------------------------------------------------------------------| 
 |--------------------------------------------------------------------| 
 |--------------------------------------------------------------------| 
 |--------------------------------------------------------------------| 
 |--0--0--0--0--3--3--5--5--0--0--0--0--3--3--5--5--0--0--0--0--------| 

  Guitar 5 1st "verse" part 2 Bass lines 01:29-01:45 

 |--------------------------------------------------------------------| 
 |--------------------------------------------------------------------| 
 |--------------------------------------------------------------------| 
 |--------------------------------------------------------------------| 
 |--5--5--5--5---------------5--5--5--5--2--2--2--2-------------------| 
 |---------------0--0--0--0--------------------------0----------------| 


   ------------------ 
  |Part 2 of the song| 
   ------------------ 

  Guitar 1 01:49-02:00 

 |--------------------------------------------------------------------| 
 |--------------------------------------------------------------------| 
 |--------------------------------------------------------------------| 
 |------2---2--------2---2--------2---2--------2---2------------------| 
 |----2---3---2----2---3---2----2---5---3----2---3---2----------------| 
 |--0------------0------------0------------0--------------------------| 

                       
  
  Guitar 2 01:49-02:00 

 |--------------------------------------------------------------------| 
 |--------------------------------------------------------------------| 
 |--------------------------------------------------------------------| 
 |--------------------------------------------------------------------| 
 |--------------------------------------------------------------------| 
 |--0-----3------0-----3--2---0----3-------0----3---------------------| 

  
  Guitar 1 02:01-End_of_song 

 |--------------------------------------------------------------------| 
 |--------------------------------------------------------------------| 
 |--------------------------------------------------------------------| x ? 
 |------2---2--------2---2--------2---2--------2---2------------------| 
 |----2---3---2----2---5---2----2---5---3----2---5---2----------------| 
 |--0------------0------------0------------0--------------------------| 

  Guitar 2 02:01-End_of_song 

 |--------------------------------------------------------------------| 
 |--------------------------------------------------------------------| 
 |--------------------------------------------------------------------| 
 |--------------------------------------------------------------------| 
 |--------------------------------------------------------------------| 
 |----------------------------0-----3------0-----3--------------------| 

  Guitar 3 02:01-End_of_song 
  
 |--------------------------------------------------------------------| 
 |--------------------------------------------------------------------| 
 |--4--2--4--2--0--2--0--2--------------------------------------------| 
 |-----------3--------------3--5--2--2--2--2--------------------------| 
 |--------------------------5--7-----3-----3--------------------------| 
 |--------------------------------------------------------------------| 

  
  Guitar 3 02:32-02:34 02:43-02:45 

 |--------------------------------------------------------------------| 
 |--8------7------5---------------------------------------------------| 
 |--9------7------5---------------------------------------------------| 
 |--------------------------------------------------------------------| 
 |--------------------------------------------------------------------| 
 |--------------------------------------------------------------------| 
		  

See also:

tabs Deep Purple - Perfect Strangers tabs Deep Purple - Smoke on the water (intro) tabs Ira! - Nucleo De Base tabs Deep Purple - Smoke on the Water (solo) tabs Ira! - Flerte Fatal (intro e solo) tabs Deep Purple - Smoke On The Water
e-chords

Other versions:

tabs Seigmen - Ameneon
auto scroll beats size up size down change color hide chords drawings
tab show chords e-chords YouTube Clip e-chords hide all tabs e-chords go to top tab

share