Secondhand Serenade

I hate this song

Secondhand Serenade

tabs Beginner beginner

by  KRAYZT2

save to print version add songbook text version e-mail correct tuner
chordsukulelecavacokeyboardtabbassdrumsharmonicaflute Guitar Pro
close

there isn't a video lesson for this song

chords

I hate this song

	  		INTRO  
e|--------------------0---|     
B|----0---0---0---0-------|     
G|--4---4---4---4---4-----|     
D|------------------------|     
A|------------------------|   (*4)  
E|------------------------|    

despues viene: 

e|--00----00----00----00--| 
B|--00----00----00----00--| 
G|--44----44----66----22--| 
D|--22----66----66----22--| 
A|--22----66----44----00--| 
E|------------------------| 

verso 1: 

e|--00----00----00----00--| 
B|--00----00----00----00--| 
G|--44----44----66----22--| 
D|--22----66----66----22--| 
A|--22----66----44----00--|    (*2) 
E|------------------------| 

coro: 

e|--0000----0000----00000000------| 
B|--0000----0000----00222000------| 
G|--1111----4444----22222222------| 
D|--2222----6666----22222222------| 
A|--2222----6666----00000000------|    (*4) 
E|--------------------------------| 

e|--0----0----0---| 
B|--0----0----0---| 
G|--6----4----4---| 
D|--6----4----2---| 
A|--4----2----2---| 
E|----------------| 

interlude: 

e|--00----00----00----00--| 
B|--00----00----00----00--| 
G|--44----44----66----22--| 
D|--22----66----66----22--| 
A|--22----66----44----00--| 
E|------------------------| 

verso 2: 

e|--00----00----00----00--| 
B|--00----00----00----00--| 
G|--44----44----66----22--| 
D|--22----66----66----22--| 
A|--22----66----44----00--|    (*2) 
E|------------------------| 

coro: 

e|--0000----0000----00000000------| 
B|--0000----0000----00222000------| 
G|--1111----4444----22222222------| 
D|--2222----6666----22222222------| 
A|--2222----6666----00000000------|    (*4) 
E|--------------------------------| 

e|--0----0----| 
B|--0----0----| 
G|--6----4----| 
D|--6----4----| 
A|--4----2----| 
E|------------| 

bridge: 

e|---------------------------------------------------| 
B|-------0-----------0-----------0-----------0-------| 
G|-----2---2-------4---4-------6---6-------6---6-----| 
D|---2-------2---4-------4---6-------6---6-------6---| 
A|-0-----------2-----------4-----------4-------------|    (*6) 
E|---------------------------------------------------| 

coro: 

e|--0000----0000----00000000------| 
B|--0000----0000----00222000------| 
G|--1111----4444----22222222------| 
D|--2222----6666----22222222------| 
A|--2222----6666----00000000------|    (*4) 
E|--------------------------------| 

e|--0----0----0---| 
B|--0----0----0---| 
G|--6----4----4---| 
D|--6----4----2---| 
A|--4----2----2---| 
E|----------------| 

*********************************************** 

Verso 1: 

Speak with your tongue tied, 
I know that you?re tired 
But I just want to know, 
Where you want to go, 
I may be sad, But I?m not weak, 
This situation is bleak 
And your puffy eyes never lie, 
Your tears come from inside. 

Coro: 

Until Sunday I?ll be waiting for an answer 
I guess that yesterday?s not good enough for you, 
You know that I hate this song, 
You know that I hate this song  
cause it was written for you 

Verso 2: 

Drown your fears with me 
I?m feeling real sorry 
Your glossy eyes don?t need 
The sadness they have seen 
But you?re way too deep to swim 
Back up again 
But somehow I can?t find 
The moment you said goodbye 

Coro 

Bridge: 

This is becoming a problem I?m hurting it?s unfair 
But somehow your words,  
The way that I heard are haunting me, 
You?re under my skin 
You?re breaking in, 
And the tasteless fights that filled our nights 
Are starting to cave in, 
You?re under my skin 
You?re breaking in 
And if Sundays what it takes to prove  
I have nothing else to loose 

Coro 
****************************** 




		  

See also:

tabs Guns N' Roses - Welcome to The Jungle tabs Guns N' Roses - Knockin' On Heaven's Door tabs 3 Doors Down - When I'm gone tabs Guns N' Roses - Don't Cry tabs Cheap Trick - The Flame tabs Aerosmith - Dream On
e-chords

Other versions:

tabs Secondhand Serenade - I hate this song
auto scroll beats size up size down change color hide chords drawings
tab show chords e-chords YouTube Clip e-chords hide all tabs e-chords go to top tab

share