Sean Watkins

Over The Waterfall

Sean Watkins

tabs Beginner beginner

save to print version add songbook text version e-mail correct tuner
chordsukulelecavacokeyboardtabbassdrumsharmonicaflute Guitar Pro
close

there isn't a video lesson for this song

chords

Over The Waterfall

	  		Tabbed By: PJ White 
 
First Guitar solo 
 
e---0-2-/5-3-2-0------------------------0-2-5-3-2-0-------------- 
B-3--------------3---0-3---------3----3-------------3------------ 
G------------------2-----2-----2--------------------------------- 
D--------------------------2-0----------------------------------- 
A---------------------------------------------------------------- 
E---------------------------------------------------------------- 
 
e---0-2-/5-3-2-0------------------------------------------------- 
B-3--------------3---0-3---------3------------------------------- 
G------------------2-----2-----2------2-4-5-/7-4-2-2h4p2-0------- 
D--------------------------2-0----------------------------------- 
A---------------------------------------------------------------- 
E---------------------------------------------------------------- 
 
e---------------------------------------------------------------- 
B------------------------------3-2-3-/5-3------------------------ 
G---0-2--4--2h4h2----------0-2----------------------------------- 
D-4---------------4-2-0--4--------------------------------------- 
A---------------------------------------------------------------- 
E---------------------------------------------------------------- 
 
e---------------------------------------------------------------- 
B---------------------------------------------------------------- 
G---0-2--4--2h4h2-----------0-2--2-0----------------------------- 
D-4---------------4-2-0---4----------4-2---0h2---0--------------- 
A----------------------------------------4-----4----------------- 
E---------------------------------------------------------------- 
 
Second Solo 
 
e-10-12-14--17-15-14-12h14p12-10-------------10-12-14--17-15-14-12h14p12-10- 
B--------------------------------10h12-10----------------------------------- 
G--------------------------------------------------------------------------- 
D--------------------------------------------------------------------------- 
A--------------------------------------------------------------------------- 
E--------------------------------------------------------------------------- 
 
e-10-12-14--17-15-14-12h14p12-10------------------------------------------ 
B--------------------------------10h12-10---10h12-13-15-12-10--10h12p10-8- 
G------------------------------------------------------------------------- 
D------------------------------------------------------------------------- 
A------------------------------------------------------------------------- 
E------------------------------------------------------------------------- 
 
e-------------------------------------10-9-10-/12-10---------------------- 
B-7h8-10--12--10h12-10-7--------7-10-------------------------------------- 
G------------------------9-7--9------------------------------------------- 
D------------------------------------------------------------------------- 
A------------------------------------------------------------------------- 
E------------------------------------------------------------------------- 
 
e-------------------------------------10-9-10-/12-10---12/14-12----------- 
B-7h8-10--12--10h12-10-7--------7-10-------------------------------------- 
G------------------------9-7--9------------------------------------------- 
D------------------------------------------------------------------------- 
A------------------------------------------------------------------------- 
E------------------------------------------------------------------------- 
		  

See also:

tabs Crosby, Stills, Nash & Young - Suite Judy Blue Eyes tabs John Denver - For You tabs Kansas - Carry On My Wayward Son tabs John Denver - Annies Song tabs Scott Joplin - The Entertainer tabs John Denver - Take Me Home, Country Roads
e-chords

Other versions:

tabs Sean Watkins - Over The Waterfall
auto scroll beats size up size down change color hide chords drawings
tab show chords e-chords YouTube Clip e-chords hide all tabs e-chords go to top tab

share