Seahaven

Love To Burn

Seahaven

tabs

by  SABRJOAO

save to print version add songbook text version e-mail correct tuner
chordsukulelecavacokeyboardtabbassdrumsharmonicaflute Guitar Pro
close

there isn't a video lesson for this song

chords

Love To Burn

	  		

Tuning: Drop D,  
 


Intro: (both guitars) 
e|-----------------------------------------------------------------| 
B|-----------------------------------------------------------------| 
G|-----------0---------------0---------------0-------------------0-| 
D|-----2---------2-----2---------2-----2---------2-----2-----------| 
A|-3-3---3-3---3---3-3---3-3---3---3-3---3-3---3---3-3---3---3-----| 
D|---------------------------------------------------------5---5---| 
                                                    1st ending        2nd ending        (Verse) 
e|-------------------------------------------------|-----------------|------------------|----| 
B|-------------------------------------------------|-----------------|------------0-----|----| 
G|-----------0---------------0---------------0-----|-----------0---0-|----------------0-|----| 
D|-----2---------2-----2---------2-----2---------2-|-----2-----------|-----2------------|----| 
A|---3---------------3---------------3-------------|---3-----3-------|---3-----3--------|-3--| 
D|-3-----3-3---3---3-----3-3---3---3-----3-3---3---|-3-----3-----3---|-3-----3------3---|----| 


Verse: x4 - bass just plays D then G 
(comes in faintly on 3rd time) 
   D                 G               D               G 
e|---------------------------------------------------------------------| 
B|---------------------------------------------------------------------| 
G|-5---------------------------------5---------------------------------| 
D|-------------------3-------------------------------3-----------------| 
A|---------------------------------------------------------------------| 
D|---------------------------------------------------------------------| 


Chorus: x2 
e|-----------------------------------------------------------------| 
B|-----------------------------------------------------------------| 
G|-----------------------------------------------------------------| 
D|-----------------------------------------------------------------| 
A|-----5-----5---5-----5-----5---5-----5-----5---5-----5-----5---5-| 
D|-5-5-5-5-5-5-5-5-5-5-5-5-5-5-5-5-5-5-5-5-5-5-5-5-5-5-5-5-5-5-5-5-| 
 | pm. ^ . . ^ . ^ . . ^ . . ^ . ^ . . ^ . . ^ . ^ . . ^ . . ^ . ^ | 
 | (it's easier to follow this rhythm, '^' notes are emphasized,   | 
 |                          but he only plays the emphasized ones) | 
e|-------0---------------0---------------0---------------0---------| 
B|-----------3---1-----------3---1-----------3---1-----------3---1-| 
G|-----0-------0-------0-------0-------0-------0-------0-------0---| 
D|-----------------------------------------------------------------| 
A|-----------------------------------------------------------------| 
D|-----------------------------------------------------------------| 

e|-----------------------------------------------------------------| 
B|-----------------------------------------------------------------| 
G|-----------------------------------------------------------------| 
D|-----------------------------------------------------------------| 
A|-----3-----5---3-----3-----5---3-----3-----5---3-----3-----5---7-| 
D|-3-3-3-3-3-3-3-3-3-3-3-3-3-3-3-3-3-3-3-3-3-3-3-3-3-3-3-3-3-3-3-3-| 
 | pm. ^ . . ^ . ^ . . ^ . . ^ . ^ . . ^ . . ^ . ^ . . ^ . . ^ . ^ | 
 |                                                                 | 
e|-------0---------------0---------------0---------------0---------| 
B|-----------3---1-----------3---1-----------3---1-----------3---1-| 
G|-----0-------0-------0-------0-------0-------0-------0-------0---| 
D|-----------------------------------------------------------------| 
A|-----------------------------------------------------------------| 
D|-----------------------------------------------------------------| 


Then repeat everything once 


Bridge: (lightly palm muted) 
e|--------p-----------------------|--------p------------------------| 
B|-------1-0------p-----p---------|-------1-0------p-----p----------| 
G|-----0-----0---2-0---2-0---0----|-----0-----0---2-0---2-0---0---0-| 
D|---2---------2------------------|---2---------2-------------------| 
A|-3------------------------------|-3-------------------------------| 
D|--------------------------------|---------------------------------| 

                                   1st ending                        2nd ending        (release pm) 
e|--------p-----------------------|--------p------------------------|--------p---------------p------| 
B|-------1-0------p-----p---------|-------1-0------p-----p----------|-------1-0-------------1-0-----| 
G|-----0-----0---2-0---2-0---0----|-----0-----0---2-0---2-0---0---0-|-----0-----0---------0-----0---| 
D|---2---------2------------------|---2---------2-------------------|---2---------2-----2---------2-| 
A|-0------------------------------|-0-------------------------------|-0---------------0-------------| 
D|--------------------------------|---------------------------------|-------------------------------| 

second guitar: something like this 
e|-----0-----0---0-|--|-----0-----0---0-|--| 
B|-----1-----1---1-|--|-----1-----1---1-|--| 
G|-----0-----0---0-|x4|-----0-----0---0-|x4| 
D|-----2-----2---2-|--|-----2-----2---2-|--| 
A|-3-3-3-3-3-3-3-3-|--|-0-0-0-0-0-0-0-0-|--| 
D|-----------------|--|-----------------|--| 


Calm Chorus: 
e|---------------------------------------------------------------------------| 
B|---------------------------------------------------------------------------| 
G|---------------------------------------------------------------------------| 
D|--/5-----2--3--2----------/5------2--3--2-------3/2----------3/2-----------| 
A|-------------------------------------------3-------------------------------| 
D|---------------------------------------------------------------------------| 


Play the intro and that's it! 


************************************ 

| /   slide up 
| \   slide down 
| h   hammer-on 
| p   pull-off 
| ~   vibrato 
| +   harmonic 
| x   Mute note 
| b   Bend 
| pb  Pre-bend 
| br  Bend release 
| pbr Pre-bend release 
| brb Bend release bend 

************************************ 
		  

Full key step upFull key step up
Half key step upHalf key step up
Half key step downHalf key step down
Full key step downFull key step down
hide glossary

See also:

tabs Seahaven - Save Me tabs Los Campesinos - Cemetery Gaits tabs Owen - No Language tabs Keaton Henson - Lying To You Tab tabs Seahaven - Love To Burn tabs John Smith - There Is A Stone
e-chords

Other versions:

tabs Seahaven - Love To Burn
auto scroll beats size up size down change color hide chords drawings
tab show chords e-chords YouTube Clip e-chords hide all tabs e-chords go to top tab

share