Seahaven

Andreas

Seahaven

tabs

by  CARLLUZ

save to print version add songbook text version e-mail correct tuner
chordsukulelecavacokeyboardtabbassdrumsharmonicaflute Guitar Pro
close

there isn't a video lesson for this song

chords

Andreas

Key:  D More
Andreas Key AA
Andreas Key A#A#
Andreas Key BB
Andreas Key CC(one step down)
Andreas Key C#C#(half step down)
Andreas Key DD(original key)
Andreas Key D#D#(half step up)
Andreas Key EE(one step up)
Andreas Key FF
Andreas Key F#F#
Andreas Key GG
Andreas Key G#G#
	  		


nd Fret 



Intro: x2 
e|---------------------------------------------------------------------------------| 
B|---------------------------------------------------------------------------------| 
G|----(0)-------------(0)---------------(0)---------------------(0)----------------| 
D|-----2-----2---2-----2-----2---2-------9--------9-----9--------9--------9-----9--| 
A|-3-3-3-3-3-3-3-3-3-3-3-3-3-3-3-3-10-10-10-10-10-10-10-10-10-10-10-10-10-10-10-10-| 
D|-3-3-3-3-3-3-3-3-3-3-3-3-3-3-3-3-10-10-10-10-10-10-10-10-10-10-10-10-10-10-10-10-| 

Verse: x4 
e|-----------------------------------------------------------------------| 
B|-----------------------------------------------------------------------| 
G|----(0)-------------(0)---------------(0)------------------------------| 
D|-----2-----2---2-----2-----2---2-------9--------9-----4----4-----------| 
A|-3-3-3-3-3-3-3-3-3-3-3-3-3-3-3-3-10-10-10-10-10-10-10-5--5-5-5-5/7-7-7-| 
D|-3-3-3-3-3-3-3-3-3-3-3-3-3-3-3-3-10-10-10-10-10-10-10-5--5-5-5-5/7-7-7-| 
 |                                                                       | 
e|-----------------------------------------------------------------------| 
B|-----------------------------------------------------------------------| 
G|----------<12>---------------------------------------------------------| 
D|--------------<7>------------------------------------<12>--------------| 
A|----<12>-------------------------<7>-----------------------------------| 
D|-----------------------------------------------------------------------| 

3rd time through its this: 
e|-----------------------------------------------------------------------| 
B|-----------------------------------------------------------------------| 
G|----(0)-------------(0)---------------(0)------------------------------| 
D|-----2-----2---2-----2-----2---2-------9--------9----------------------| 
A|-3-3-3-3-3-3-3-3-3-3-3-3-3-3-3-3-10-10-10-10-10-10-10-5----------------| 
D|-3-3-3-3-3-3-3-3-3-3-3-3-3-3-3-3-10-10-10-10-10-10-10-5----------------| 
 |                                                                       | 
e|-----------------------------------------------------------------------| 
B|-----------------------------------------------------------------------| 
G|----------<12>---------------------------------------------------------| 
D|--------------<7>------------------------------------<12>--------------| 
A|----<12>-------------------------<7>-----------------------------------| 
D|-----------------------------------------------------------------------| 



Chorus: x2 
e|------------------------------------------------------------| 
B|------------------------------------------------------------| 
G|-----------------------------0------------------------------| 
D|-----0h2p0------2h3p2-------------0h2p0-------2h3p2---------| 
A|---3-------3-0---------3/5/3------------3-0---------3/5/3---| 
D|-3------------------------------3---------------------------| 


verse 2: Play the same thing as the first verse, except do this the third time through: 

e|------------------------------------------------------------------------| 
B|------------------------------------------------------------------------| 
G|----(0)-------------(0)---------------(0)-------------------------<7>---| 
D|-----2-----2---2-----2-----2---2-------9--------9-----------------<7>---| 
A|-3-3-3-3-3-3-3-3-3-3-3-3-3-3-3-3-10-10-10-10-10-10-10-5--7--5--xx-<7>---| 
D|-3-3-3-3-3-3-3-3-3-3-3-3-3-3-3-3-10-10-10-10-10-10-10-5--7--5--xx-------| 
 |                                                                        | 
e|------------------------------------------------------------------------| 
B|------------------------------------------------------------------------| 
G|----------<12>----------------------------------------------<12>--------| 
D|--------------<7>------------------------------------<12>---------------| 
A|----<12>-------------------------<7>------------------------------------| 
D|------------------------------------------------------------------------| 

Chorus: x2 
e|------------------------------------------------------------| 
B|------------------------------------------------------------| 
G|-----------------------------0------------------------------| 
D|-----0h2p0------2h3p2-------------0h2p0-------2h3p2---------| 
A|---3-------3-0---------3/5/3------------3-0---------3/5/3---| 
D|-3------------------------------3---------------------------| 
 |                                                            | 
e|-----------------------8p7----------------------------------| 
B|---------------------------8/5-----------------------5h6p5--| 
G|----------------------------------------------5h7p5---------| 
D|------------------------------------------------------------| 
A|------------------------------------------------------------| 
D|------------------------------------------------------------| 

Interlude: (play lightly, slightly muted, let it ring) 
e|------------------------------------------------------------------| 
B|------------------------------------------------------------------| 
G|-------0---------------0---------------4---------------4----------| 
D|-------------2---------------2-----5---------5---------------5----| 
A|-3-3-3---3-3---3-3-3-3---3-3---3-7---7---7-7---7-7-7-7---7-7---7--| 
D|-3-3-3---3-3---3-3-3-3---3-3---3-7---7---7-7---7-7-7-7---7-7---7--| 

e|------------------------------------------------------------------| 
B|------------------------------------------------------------------| 
G|-------0---------------0------------------------------------------| 
D|---2---------2-----2---------2-----0---2-----0-----0---2-----0----| 
A|-3---3---3-3---3-3---3---3-3---3-0---0---0-0---0-0---0---0-0---0--| 
D|-3---3---3-3---3-3---3---3-3---3----------------------------------| 

2nd guitar comes in: 
e|------------------------------------------------------------------| 
B|---0---1---1---0---0---1---1---0---0---1---1---3---3---1---1---0--| 
G|-0---0---0---0---0---0---0---0---0---0---0---0---0---0---0---0----| 
D|------------------------------------------------------------------| 
A|------------------------------------------------------------------| 
D|------------------------------------------------------------------| 

e|------------------------------------------------------------------| 
B|---0---1---1---0---0---1---1---0---0---1---1---3---3---5---5---0--| 
G|-0---0---0---0---0---0---0---0---0---0---0---0---0---0---0---0----| 
D|------------------------------------------------------------------| 
A|------------------------------------------------------------------| 
D|------------------------------------------------------------------| 


Build-up: 
e|----------------------------------------------------------------| 
B|--------------------0-------------------------------------------| 
G|-------------0-------------0---0-----------------------0-0-0-0--| 
D|------2------2-----------------2---------------2-2-2-2-2-2-2-2--| 
A|-3--3-3--3-3-3--3-3---3-3----3-3---3-3-3-3-3-3-3-3-3-3-3-3-3-3--| 
D|-3--3-3--3-3-3--3-3---3-3----3-3---3-3-3-3-3-3-3-3-3-3-3-3-3-3--| 


Bridge: x2 
e|-----------------------------------------------------------------| 
B|-----------------------------------------------------------------| 
G|-----------------------------------------------------------------| 
D|-----2-----2---2-----2-----2---2-----5-----5---5-----5-----5---5-| 
A|-3-3-3-3-3-3-3-3-3-3-3-3-3-3-3-3-7-7-7-7-7-7-7-7-7-7-7-7-7-7-7-7-| 
D|-3-3-3-3-3-3-3-3-3-3-3-3-3-3-3-3-7-7-7-7-7-7-7-7-7-7-7-7-7-7-7-7-| 

e|-----------------------------------------------------------------| 
B|-8/10----------------------------8/10----------------------------| 
G|-------7/9-------------9/7---5---------7/9-------------9/7---5---| 
D|-5/7-----------------------------5/7-----------------------------| 
A|-------5/7-------------7/5---3---------5/7-------------7/5---3---| 
D|-----------------------------------------------------------------| 

e|-----------------------------------------------------------------| 
B|-----------------------------------------------------------------| 
G|-----------------------------------------------------------------| 
D|-----2-----2---2-----2-----2---2-----5-----5---5-----5-----5---5-| 
A|-3-3-3-3-3-3-3-3-3-3-3-3-3-3-3-3-7-7-7-7-7-7-7-7-7-7-7-7-7-7-7-7-| 
D|-3-3-3-3-3-3-3-3-3-3-3-3-3-3-3-3-7-7-7-7-7-7-7-7-7-7-7-7-7-7-7-7-| 

e|-----------------------------------------------------------------| 
B|-8/10------------------------------------------------------------| 
G|-------7/9-------------9/7---5---7/9---9/7-------------5/4---5---| 
D|-5/7-------------------------------------------------------------| 
A|-------5/7-------------7/5---3---5/7---7/5-------------3/2---3---| 
D|-----------------------------------------------------------------| 

Outro Chorus: 
e|-----------------------------------------------------------------| 
B|-----------------------------------------------------------------| 
G|-----------------------------------------------------------------| 
D|-----------------------------------------------------------------| 
A|-3---------------7-------5-------3--------------7--------5-------| 
D|-3---------------7-------5-------3--------------7--------5-------| 




************************************ 

| /   slide up 
| \   slide down 
| h   hammer-on 
| p   pull-off 
| ~   vibrato 
| +   harmonic 
| x   Mute note 
| b   Bend 
| pb  Pre-bend 
| br  Bend release 
| pbr Pre-bend release 
| brb Bend release bend 
| <>  Natural Harmonic 

************************************ 
		  

See also:

tabs Seahaven - Save Me tabs Los Campesinos - Cemetery Gaits tabs Owen - No Language tabs Keaton Henson - Lying To You Tab tabs Seahaven - Love To Burn tabs John Smith - There Is A Stone
e-chords

Other versions:

tabs Seahaven - Andreas
auto scroll beats size up size down change color hide chords drawings
tab show chords e-chords YouTube Clip e-chords hide all tabs e-chords go to top tab

share