Screaming Females

home > Screaming Females

Black Moon Tab

Screaming Females

Difficulty: nolevelnolevel

by LINEKERS

tuner correct add songbook print version text version save to e-mail
chordsukulelecavacokeyboardtabbassdrumsharmonicsflute Guitar Pro
chords

Black Moon

  		
Intro 
E|------------------------| 
B|------------------------| 
G|------------------------| 
D|--xx-14-----------------| 
A|--xx-14-----------------| 
E|--xx-12-----------------| 

E|----------------------------------------------------------------------------------------------------------| 
B|--12---------------15---------------14--------------------------12--------------15------------15--15/17---| 
G|----------------------------------------------------------------------------------------------------------| 
D|------14b---------------14b---------------14b------xx-14------------14b------------14b--------------------| 
A|---------------------------------------------------xx-14--------------------------------------------------| 
E|---------------------------------------------------xx-12--------------------------------------------------| 

E|------------------------------------------------------| 
B|---------13------15-----------------------------------| 
G|---------------------14--12------14------14/16--------| 
D|--12/14------14--------------12------12---------------| 
A|------------------------------------------------------| 
E|------------------------------------------------------| 

verse 1 
E|-------------------------------| 
B|-------------------------------| 
G|-------------------------------| 
D|--12h14--14--14--14--14--12----|  (x8) 
A|--12h14--14--14--14--14--12----| 
E|--12h12--12--12--12--12--12----| 

E|---------------------------------------| 
B|---------------------------------------| 
G|--9---9---9------12--12--12--12--11----| 
D|--10--10--10-----12--12----------------| 
A|--10--10--10-----10--10--10--10--9-----| 
E|--8---8---8----------------------------| 

verse 2 
E|-------------------------------| 
B|-------------------------------| 
G|-------------------------------| 
D|--12h14--14--14--14--14--12----|  (x4) 
A|--12h14--14--14--14--14--12----| 
E|--12h12--12--12--12--12--12----| 

Pre-Chorus 
E|--------------------------| 
B|--------------------------| 
G|---9------------4---------| 
D|---10-----------5---------| 
A|---10--(x3)-----5--(x3)---| 
E|---8------------3---------| 

Chorus 
E|-----------------------------------------------------| 
B|-----------------------------------------------------| 
G|---------------9-------------4-----------------------| 
D|--14-----------10------------5------------14-x-14----|  (x2) 
A|--14--(x16)----10--(x16)-----5--(x16)-----14-x-14----| 
E|--12-----------8-------------3------------12-x-12----| 

E|--------------------------------------| 
B|------------12------8--------3--------| 
G|--14\-------13------9--------4--------| 
D|------------14------10-------5--------| 
A|--12\-------14------10-------5--------| 
E|------------12------8--------3--------| 

Intro 
E|--------------------------------------------------------| 
B|---------12--------------15------------15--15/17--------| 
G|--------------------------------------------------------| 
D|--xx14-------14b------------14b-------------------------| 
A|--xx14--------------------------------------------------| 
E|--xx12--------------------------------------------------| 


E|------------------------------------------------------| 
B|---------13------15-----------------------------------| 
G|---------------------14--12------14------14/16--------| 
D|--12/14------12--------------12------12---------------| 
A|------------------------------------------------------| 
E|------------------------------------------------------| 

Solo 
E|------------------------------------------------------| 
B|--------------------------------x12-12-----x12-12-----| 
G|--12--x16--xxx--12-12/14\12--9--x12-12--9--x12-12-----| 
D|--------------------------------x12-12-----x12-12-----|  (x2) 
A|--10--x14--xxx--10-10/12\10--7--x10-10--7--x10-10-----| 
E|------------------------------------------------------| 

E|----------------------------------------------| 
B|----------------------------------------------| 
G|--12--x16--xxx--12-12/14\12--9\-----9\--------| 
D|----------------------------------------------| 
A|--10--x14--xxx--10-10/12\10--7\-----7\--------| 
E|----------------------------------------------| 

E|------------------------------------------------------------| 
B|---------------------------------x12-12---------------------| 
G|--12--x16--xxxx--12-12/14\12--9--x12-12----9-9-9-9-9-7------| 
D|---------------------------------x12-12----9-9-9-9-9-7 -----| 
A|--10--x14--xxxx--10-10/12\10--7--x10-10----7-7-7-7-7-5------| 
E|------------------------------------------------------------| 


Structure 

Intro 
verse 1 
verse 2 
Pre Chorus 
Chorus 
Intro Again 
verse 1 
verse 2 
Pre Chorus 
Chorus 
Octave Solo 
Pre Chorus 
Chorus 



************************************ 

| x  Dead note 
| /  Slide up 
| b  Bend 
| h  Hammer-on 
| \  Slide down 


************************************ 
	  

Search Paypal
auto scroll beats size up size down change color hide chords drawings
tab show chords e-chords YouTube Clip e-chords hide all tabs e-chords go to top tab