Screamin Jay Hawkins

Whistling Past The Graveyard

Screamin Jay Hawkins

tabs Easy easy

by  LINEKERS

save to print version add songbook text version e-mail correct tuner
chordsukulelecavacokeyboardtabbassdrumsharmonicaflute Guitar Pro
close

there isn't a video lesson for this song

chords

Whistling Past The Graveyard

	  		

Verse repeat throughout  
e|---------------------------------------------------------------------------| 
B|---------------------------------------------------------------------------| 
G|---------------------------------------------------------------------------| 
D|---------------------------------------------------------------------------| 
A|2-2---0---0-2-2----0---0-2-2---0---0---------------------------------------| 
E|----2---2--------2---2-------2---2-----------------------------------------| 

Chorus is Bm to A. I play it like this 
e|-----7-7----5-5------7-7------5-5------------------------------------| 
B|-----7-7----5-5------7-7------5-5------------------------------------| 
G|-----7-7----6-6------7-7------6-6------------------------------------| 
D|------------7-7---------------7-7------------------------------------| 
A|---------------------------------------------------------------------------| 
E|---------------------------------------------------------------------------| 

Lead guitar during Chorus goes something like this 
e|---------------------------------------------------------------------------| 
B|---------------------------------------------------------------------------| 
G|---------------------------------------------------------------------------| 
D|--------------44-----------2---------------44---------2--------------------| 
A|--22--55--77--------22--5------22--55--77------22--5-----------------------| 
E|---------------------------------------------------------------------------| 
		  

Full key step upFull key step up
Half key step upHalf key step up
Half key step downHalf key step down
Full key step downFull key step down
hide glossary

See also:

tabs Deep Purple - Strange kind of woman tabs Deep Purple - Smoke On The Water tabs Deep Purple - Time To Kill tabs Albert Hammond Jr - Gfc tabs Deep Purple - Soldier Of Fortune tabs Ira! - Nucleo De Base
e-chords

Other versions:

tabs Screamin Jay Hawkins - Whistling Past The Graveyard
auto scroll beats size up size down change color hide chords drawings
tab show chords e-chords YouTube Clip e-chords hide all tabs e-chords go to top tab

share