Scorpions

home > Scorpions

You and I ( ver. 2 ) Tab

Scorpions

Difficulty: IntermediateIntermediate

by galo+morto

tuner correct add songbook print version text version save to e-mail
chordsukulelecavacokeyboardtabbassdrumsharmonicsflute Guitar Pro
chords

You and I ( ver. 2 )

  		E------8-7/8--7------12-10-8------------------------- 
B---10-----------10-----------10---10---------------- 
G-9------------------------------9------------------- 
D---------------------------------------------------- 
A---------------------------------------------------- 
E---------------------------------------------------- 
 
E---------------------------------------------------- 
B-------8-6-----5----------------------------------- 
G---5-7-----7-5---4--------------------------------- 
D-7------------------7-5----------------------------- 
A---------------------------------------------------- 
E---------------------------------------------------- 

	  

Search Paypal
auto scroll beats size up size down change color hide chords drawings
tab show chords e-chords YouTube Clip e-chords hide all tabs e-chords go to top tab