Scorpions

home > Scorpions

What You Give, You Get Back Tab

Scorpions

Difficulty: nolevelnolevel

by Andre020182

tuner correct add songbook print version text version save to e-mail
chordsukulelecavacokeyboardtabbassdrumsharmonicsflute Guitar Pro
chords

What You Give, You Get Back

Year: 1999 - Album: No. 1's

(Klaus Meine / Rudolf Schenker)

  		Author/Artist: scorpions 
Title: what you give you get  back 
Album: eye to eye 
 
-------0-------0-------0-------0--------------------------3-----3-----3-----3- 
---------1-------1-------1-------0----------------------5-----5-----5-----0--- 
-2---------0-------0-------0-------0-------2-------4--5-----4-----2-----0----- 
-5---------------------------------------3-------5---------------------------- 
-5---3-------2-------0-----------------3-------5------------------------------ 
-3---------------------------0-------1-------3-------------------------------- 
  as long as i can think i've...  been too far                                 
 
-------0-------0-------0------0---------------------------3-----3----3-----3-- 
---------1-------1-------1------0-----------------------5-----5----5-----0---- 
-----------0-------0-------0------0--------2-------4--5-----4-----2----0------ 
-----------------------------------------3-------5---------------------------- 
-----3-------2-------0-----------------3-------5------------------------------ 
----------------------------0--------1-------3-------------------------------- 
  had nothing but a bag ...     for you and me                                 
 
---------------1---1--------------------------3---3--------------------------- 
------------------------------------------------------------------------------ 
-------------2------------------------------4--------------------------------- 
-----------3-----3------------------------5-----5----------------------------- 
------------------------------------------------------------------------------ 
---------1------------------------------3------------------------------------- 
 there's so much love inside of me that wants to be released                   
 
-----3-------3-------3-------3------------------------------------------------ 
---5-------5-------5-------0------1------------------------------------------- 
-5-------4-------2-------0--------2------------------------------------------- 
----------------------------------3------------------------------------------- 
----------------------------------3------------------------------------------- 
----------------------------------1------------------------------------------- 
 i can't help it so i give it all away       (open distortion)                 
 
------------------------------------------------------------------------------ 
------------------------------------------------------------------------------ 
------------------------------------------------------------------------------ 
----------7--2---------3--10---9-------7--2------3------------------5--------- 
----------7--2---------3--10---9-------7--2------3------------------5--------- 
----------5--0---------1--8----7-------5--0------1------------------3--------- 
 what you give you get back so take my love just because it's all i have       
 
------------------------------------------------------------------------------ 
------------------------------------------------------------------------------ 
-----------------------10------------------------10--------------------------- 
-7----9--10------------10----------10------------10--------------------------- 
-7----9--10------------8-----------10------------8---------------------------- 
-5----7--8-------------------------8------------------------------------------ 
 take my heart take my soul i just never want it back (continue as before...)  
 
----------------------------------0h3p0----------------------8p5-------------- 
-----------------------------------------------------8/10\8--------3/5-------- 
-----------------------------------------------------7/-9\7------5------------ 
------------------------------------------------------------------------------ 
------------------------------------------------------------------------------ 
------------------------------------------------------------------------------ 
 fill in:...without it anymore...    across your heart...                      
 
----------------------------------------------------5/8-7--------------------- 
---------------------10\8-------------6\5--\0--------------------------------- 
-------------------9---------------------------------------------------------- 
------------------------------------------------------------------------------ 
------------------------------------------------------------------------------ 
------------------------------------------------------------------------------ 
 fill in: what you give you get back so take my love just because it's all i   
 
------------------------------------------------------------------------------ 
----6/10-8-----------------8\10----------8\-------------6--------------------- 
------------------------------------------------------------------------------ 
------------------------------------------------------------------------------ 
------------------------------------------------------------------------------ 
------------------------------------------------------------------------------ 
 have take my heart take my soul i just never want it back  because the love   
 
------------------------------------------------------------------------------ 
-----------------------------7\0-----15p14-------------------15p14-15p14------ 
-----------------------------7\0-----------14----------17----------------14--- 
----------------------------------------------14-16b18----14------------------ 
------------------------------------------------------------------------------ 
------------------------------------------------------------------------------ 
 you give is the love you get(chords)A5        G#5         F#5      C#5        
 
-----------------------------15-17-19-20------------20------------------------ 
----17b19--15p14-------17-18---------------17h20p17-------17-20--------------- 
-----------------14------------------------------------17-------16-14--------- 
-16-----------------14----------------------------------------------------10-- 
------------------------------------------------------------------------------ 
------------------------------------------------------------------------------ 
 D         A5 G# F# C#5   F5         G5    C5        B5        A5       E5     
 
------------------------------------------------------------------------------ 
------------------------------------------------------------------------------ 
----------12b14-14-12-----------------------------------------------4-5-7----- 
-12b14r12-------------12-12/14-14-12-10-12b14r12-10-10b12r10------7----------- 
--------------------------------------------------------------3--------------- 
------------------------------------------------------------------------------ 
         F5                                                   C5   B5  A5      
 
------------------------------------------------------------------------------ 
--------8-5-6-t13------------------------------------------------------------- 
-7b9r7-5---------------------------------------------------------------------- 
------------------------------------------------------------------------------ 
------------------------------------------------------------------------------ 
------------------------------------------------------------------------------ 
 E5         F5(play 6 and tap on the 13 fret while holding 6) there's so       
 
------------------------------------------------------------------------------ 
------------------------------------------------------------------------------ 
------------------------------------------------------------------------------ 
-----------------------------5----------------------------10------9----7------ 
-----------------------------5----------------------------10------9----7------ 
-----------------------------3----------------------------8-------7----5------ 
 much love inside of me that wants to be released i can't help it so i give    
 
------------------------------------------------------------------------------ 
------------------------------------------------------------------------------ 
------------------------------------------------------------------------------ 
-5------3--------------------------------------------------------------------- 
-5------3--------------------------------------------------------------------- 
-3------1--------------------------------------------------------------------- 
 it all away(and the song continues...)                                        
 
 
 
 
--------------------- 
Downloaded from: 
ScannedTabs.cjb.net 
--------------------- 
 

	  

Search Paypal
auto scroll beats size up size down change color hide chords drawings
tab show chords e-chords YouTube Clip e-chords hide all tabs e-chords go to top tab