Scorpions

home > Scorpions

We let it rock... you let it roll Tab

Scorpions

Difficulty: AdvancedAdvanced

by Andre020182

tuner correct add songbook print version text version save to e-mail
chordsukulelecavacokeyboardtabbassdrumsharmonicsflute Guitar Pro
chords

We let it rock... you let it roll

Year: 1988 - Album: Savage Amusement

  		We let it rock... you let it roll - Schenker/Meine 
Savage amusement 
Scorpions 
                                    4a vez 
fig 1             tocar 4 veces    *8a vez 
---------------------------¦------¦----------- 
---------------------------¦------¦----------- 
----9-9-8----12-12-12---x--¦-7----¦--12------- tocar ocho veces solo en el  
principio de la 
----9-9-8----12-12-12---x--¦-7----¦--10------- canción 
----7-7-6----10-10-10---x--¦-5----¦----------- 
---------------------------¦------¦----------- 
 
fig 2 
------------------------------------------------¦ 
------------------------------------------------¦ 
----9----------5-----5-----5-----5-----5-----5--¦ 
----9----------5-----5-----5-----5-----5-----5--¦ 
----7----------3-0-0-3-0-0-3-0-0-3-0-0-3-0-0-3--¦ 
------------------------------------------------¦ 
                 p.m.  ...   ...   ...   ... 
 
fig 3 
-------------------------------------------------------------------------------------- 
-------------------------------------------------------------------------------------- 
-4-4-4-4-4-4-4---5-5-5-5-5-5---2-----2-----2-----2-----2-----2-----4-----4-----4-----4 
-4-4-4-4-4-4-4---5-5-5-5-5-5---2-----2-----2-----2-----2-----2-----4-----4-----4-----4 
-2-2-2-2-2-2-2---3-3-3-3-3-3---0-0-0-0-0-0-0-0-0-0-0-0-0-0-0-0-2-2-2-2-2-2-2-2-2-2-2-2 
-------------------------------------------------------------------------------------- 
p.m.........................     ...   ...   ...   ...   ...   ...   ...    
...   ... 
 
 
fig 4 
 
------------------------------------------------¦------------------------------------------ 
------------------------------------------------¦------------------------------------------ 
----9-----------9-5-----5-----5-----5-----------¦--9--------9-----9-----5-----5-----5-----5 
----9-----------9-5-----5-----5-----5-----------¦--9--------9-----9-----5-----5-----5-----5 
----7-----------7-3-0-0-3-----3-0-0-3-----------¦--7--------7-7-7-7-----3-0-0-3-----3-0-0-3 
------------------------------------------------¦------------------------------------------ 
                    p.m..     .......                      ......        
.......     ....... 
 
--------------------------------------------------------------------- 
--------------------------------------------------------------------- 
-4-----4-----4-----4-----4-----4---5-----5-----5-----5-----5-----5--- 
-4-----4-----4-----4-----4-----4---5-----5-----5-----5-----5-----5--- 
-2-2-2-2-2-2-2-2-2-2-2-2-2-2-2-2---3-3-3-3-3-3-3-3-3-3-3-3-3-3-3-3--- 
--------------------------------------------------------------------- 
p.m.................................................................. 
 
 
-------------------------------------------------------------------------------------- 
-------------------------------------------------------------------------------------- 
---2-----2-----2-----2-----2-----2-----4-----4-----4-----4---------------------------- 
---2-----2-----2-----2-----2-----2-----4-----4-----4-----4---------------------------- 
---0-0-0-0-0-0-0-0-0-0-0-0-0-0-0-0-2-2-2-2-2-2-2-2-2-2-2-2---------------------------- 
-------------------------------------------------------------------------------------- 
p.m........................................................ 
 
 
 
fig 1 
 
 
                                                
_______________________________ 
We come to you through a storm of lightning 
To drive this place totally insane                    fig 2x4 
Another show that really keeps us fighting 
For what it takes to blow your mind away       
_______________________________ 
Hey you, are you ready for tonight 
Can you hear me now                                   fig 3x1 
Let me hear you too                            
_______________________________ 
                                                
_______________________________ 
We come to you through a wall of thunder              fig 2x2 
Electrified by the sound of the guitars        
_______________________________ 
Hey you, are you ready for tonight 
Can you see me now                                    fig 3x1 
I wanna see you out there                      
_______________________________ 
                                                
_______________________________ 
We let it rock to free your energy 
You let it roll, come on get on your feet             fig 1 
We let it rock to feed your hungry dreams 
You let it roll, up to the ecstasy             
_______________________________ 
                                                
_______________________________ 
We come to you through a burst of fire                fig 2x2 
Energized by the feedback of the crowd         
_______________________________ 
Hey you, are you ready for tonight 
Can you feel me now                                   fig 3x1 
Can you feel the groove                        
_______________________________ 
                                                
_______________________________ 
We let it rock to free your energy 
You let it roll, come on get on your feet             fig 1 
We let it rock to feed your hungry dreams 
You let it roll, up to the ecstasy             
_______________________________ 
 
SOLO           fig 4 
 
 
We let it........  fig 1 hasta terminar 
 

	  

Search Paypal
auto scroll beats size up size down change color hide chords drawings
tab show chords e-chords YouTube Clip e-chords hide all tabs e-chords go to top tab